  0
SECTION
  2
HEADER
  9
$ACADVER
  1
AC1009
  9
$DWGCODEPAGE
  3
ansi_1252
  9
$INSBASE
 10
0.0
 20
0.0
 30
0.0
  9
$EXTMIN
 10
-6.137254901961228
 20
-11.67320261437817
 30
0.0
  9
$EXTMAX
 10
2493.862745098039
 20
1238.326797385622
 30
0.0
  9
$LIMMIN
 10
0.0
 20
0.0
  9
$LIMMAX
 10
12.0
 20
9.0
  9
$ORTHOMODE
 70
     0
  9
$REGENMODE
 70
     1
  9
$FILLMODE
 70
     1
  9
$QTEXTMODE
 70
     0
  9
$MIRRTEXT
 70
     1
  9
$DRAGMODE
 70
     2
  9
$LTSCALE
 40
1.0
  9
$OSMODE
 70
    37
  9
$ATTMODE
 70
     1
  9
$TEXTSIZE
 40
0.2
  9
$TRACEWID
 40
0.05
  9
$TEXTSTYLE
  7
STANDARD
  9
$CLAYER
  8
0
  9
$CELTYPE
  6
BYLAYER
  9
$CECOLOR
 62
   256
  9
$DIMSCALE
 40
1.0
  9
$DIMASZ
 40
0.18
  9
$DIMEXO
 40
0.0625
  9
$DIMDLI
 40
0.38
  9
$DIMRND
 40
0.0
  9
$DIMDLE
 40
0.0
  9
$DIMEXE
 40
0.18
  9
$DIMTP
 40
0.0
  9
$DIMTM
 40
0.0
  9
$DIMTXT
 40
0.18
  9
$DIMCEN
 40
0.09
  9
$DIMTSZ
 40
0.0
  9
$DIMTOL
 70
     0
  9
$DIMLIM
 70
     0
  9
$DIMTIH
 70
     1
  9
$DIMTOH
 70
     1
  9
$DIMSE1
 70
     0
  9
$DIMSE2
 70
     0
  9
$DIMTAD
 70
     0
  9
$DIMZIN
 70
     0
  9
$DIMBLK
  1

  9
$DIMASO
 70
     1
  9
$DIMSHO
 70
     1
  9
$DIMPOST
  1

  9
$DIMAPOST
  1

  9
$DIMALT
 70
     0
  9
$DIMALTD
 70
     2
  9
$DIMALTF
 40
25.4
  9
$DIMLFAC
 40
1.0
  9
$DIMTOFL
 70
     0
  9
$DIMTVP
 40
0.0
  9
$DIMTIX
 70
     0
  9
$DIMSOXD
 70
     0
  9
$DIMSAH
 70
     0
  9
$DIMBLK1
  1

  9
$DIMBLK2
  1

  9
$DIMSTYLE
  2
STANDARD
  9
$DIMCLRD
 70
     0
  9
$DIMCLRE
 70
     0
  9
$DIMCLRT
 70
     0
  9
$DIMTFAC
 40
1.0
  9
$DIMGAP
 40
0.09
  9
$LUNITS
 70
     2
  9
$LUPREC
 70
     2
  9
$SKETCHINC
 40
0.1
  9
$FILLETRAD
 40
0.5
  9
$AUNITS
 70
     0
  9
$AUPREC
 70
     0
  9
$MENU
  1
.
  9
$ELEVATION
 40
0.0
  9
$PELEVATION
 40
0.0
  9
$THICKNESS
 40
0.0
  9
$LIMCHECK
 70
     0
  9
$CHAMFERA
 40
0.0
  9
$CHAMFERB
 40
0.0
  9
$SKPOLY
 70
     0
  9
$TDCREATE
 40
2458191.795687037
  9
$TDUPDATE
 40
2458191.795701956
  9
$TDINDWG
 40
0.0000000116
  9
$TDUSRTIMER
 40
0.0000000116
  9
$USRTIMER
 70
     1
  9
$ANGBASE
 50
0.0
  9
$ANGDIR
 70
     0
  9
$PDMODE
 70
     0
  9
$PDSIZE
 40
0.0
  9
$PLINEWID
 40
0.0
  9
$COORDS
 70
     1
  9
$SPLFRAME
 70
     0
  9
$SPLINETYPE
 70
     6
  9
$SPLINESEGS
 70
     8
  9
$ATTDIA
 70
     0
  9
$ATTREQ
 70
     1
  9
$HANDLING
 70
     1
  9
$HANDSEED
  5
62D
  9
$SURFTAB1
 70
     6
  9
$SURFTAB2
 70
     6
  9
$SURFTYPE
 70
     6
  9
$SURFU
 70
     6
  9
$SURFV
 70
     6
  9
$UCSNAME
  2

  9
$UCSORG
 10
0.0
 20
0.0
 30
0.0
  9
$UCSXDIR
 10
1.0
 20
0.0
 30
0.0
  9
$UCSYDIR
 10
0.0
 20
1.0
 30
0.0
  9
$PUCSNAME
  2

  9
$PUCSORG
 10
0.0
 20
0.0
 30
0.0
  9
$PUCSXDIR
 10
1.0
 20
0.0
 30
0.0
  9
$PUCSYDIR
 10
0.0
 20
1.0
 30
0.0
  9
$USERI1
 70
     0
  9
$USERI2
 70
     0
  9
$USERI3
 70
     0
  9
$USERI4
 70
     0
  9
$USERI5
 70
     0
  9
$USERR1
 40
0.0
  9
$USERR2
 40
0.0
  9
$USERR3
 40
0.0
  9
$USERR4
 40
0.0
  9
$USERR5
 40
0.0
  9
$WORLDVIEW
 70
     1
  9
$SHADEDGE
 70
     3
  9
$SHADEDIF
 70
    70
  9
$TILEMODE
 70
     1
  9
$MAXACTVP
 70
    64
  9
$PLIMCHECK
 70
     0
  9
$PEXTMIN
 10
1.000000000000000E+20
 20
1.000000000000000E+20
 30
1.000000000000000E+20
  9
$PEXTMAX
 10
-1.000000000000000E+20
 20
-1.000000000000000E+20
 30
-1.000000000000000E+20
  9
$PLIMMIN
 10
0.0
 20
0.0
  9
$PLIMMAX
 10
12.0
 20
9.0
  9
$UNITMODE
 70
     0
  9
$VISRETAIN
 70
     1
  9
$PLINEGEN
 70
     0
  9
$PSLTSCALE
 70
     1
  0
ENDSEC
  0
SECTION
  2
TABLES
  0
TABLE
  2
VPORT
 70
     1
  0
VPORT
  2
*ACTIVE
 70
     0
 10
0.0
 20
0.0
 11
1.0
 21
1.0
 12
1243.862745098039
 22
613.326797385622
 13
0.0
 23
0.0
 14
0.5
 24
0.5
 15
0.5
 25
0.5
 16
0.0
 26
0.0
 36
1.0
 17
0.0
 27
0.0
 37
0.0
 40
1275.0
 41
2.0
 42
50.0
 43
0.0
 44
0.0
 50
0.0
 51
0.0
 71
     0
 72
   100
 73
     1
 74
     3
 75
     0
 76
     0
 77
     0
 78
     0
  0
ENDTAB
  0
TABLE
  2
LTYPE
 70
     1
  0
LTYPE
  2
CONTINUOUS
 70
     0
  3
Solid line
 72
    65
 73
     0
 40
0.0
  0
ENDTAB
  0
TABLE
  2
LAYER
 70
     3
  0
LAYER
  2
0
 70
     0
 62
     7
  6
CONTINUOUS
  0
LAYER
  2
LAYER_01
 70
     0
 62
     1
  6
CONTINUOUS
  0
LAYER
  2
LAYER_02
 70
     0
 62
     2
  6
CONTINUOUS
  0
ENDTAB
  0
TABLE
  2
STYLE
 70
     1
  0
STYLE
  2
STANDARD
 70
     0
 40
0.0
 41
1.0
 50
0.0
 71
     0
 42
0.2
  3
txt
  4

  0
ENDTAB
  0
TABLE
  2
VIEW
 70
     0
  0
ENDTAB
  0
TABLE
  2
UCS
 70
     0
  0
ENDTAB
  0
TABLE
  2
APPID
 70
     1
  0
APPID
  2
ACAD
 70
     0
  0
ENDTAB
  0
TABLE
  2
DIMSTYLE
 70
     1
  0
DIMSTYLE
  2
STANDARD
 70
     0
  3

  4

  5

  6

  7

 40
1.0
 41
0.18
 42
0.0625
 43
0.38
 44
0.18
 45
0.0
 46
0.0
 47
0.0
 48
0.0
140
0.18
141
0.09
142
0.0
143
25.4
144
1.0
145
0.0
146
1.0
147
0.09
 71
     0
 72
     0
 73
     1
 74
     1
 75
     0
 76
     0
 77
     0
 78
     0
170
     0
171
     2
172
     0
173
     0
174
     0
175
     0
176
     0
177
     0
178
     0
  0
ENDTAB
  0
ENDSEC
  0
SECTION
  2
BLOCKS
  0
BLOCK
  8
0
  2
$MODEL_SPACE
 70
     0
 10
0.0
 20
0.0
 30
0.0
  3
$MODEL_SPACE
  1

  0
ENDBLK
  5
21
  8
0
  0
BLOCK
 67
     1
  8
0
  2
$PAPER_SPACE
 70
     0
 10
0.0
 20
0.0
 30
0.0
  3
$PAPER_SPACE
  1

  0
ENDBLK
  5
1D
 67
     1
  8
0
  0
ENDSEC
  0
SECTION
  2
ENTITIES
  0
ARC
  5
6E
  8
0
  6
CONTINUOUS
 10
997.9674968039387
 20
488.604348408322
 30
0.0
 40
2.000000000000341
 50
196.6015495990403
 51
270.0
  0
LINE
  5
6F
  8
0
  6
CONTINUOUS
 10
997.9674968039387
 20
486.6043484083217
 30
0.0
 11
1001.259292871439
 21
486.6043484083218
 31
0.0
  0
LINE
  5
70
  8
0
  6
CONTINUOUS
 10
1001.259292871439
 20
486.6043484083218
 30
0.0
 11
1001.259292871439
 21
710.6043484083218
 31
0.0
  0
LINE
  5
71
  8
0
  6
CONTINUOUS
 10
1001.259292871439
 20
710.6043484083218
 30
0.0
 11
997.9674968039387
 21
710.6043484083218
 31
0.0
  0
ARC
  5
72
  8
0
  6
CONTINUOUS
 10
997.9674968039387
 20
708.6043484083214
 30
0.0
 40
2.000000000000455
 50
90.0
 51
163.3984504009535
  0
ARC
  5
73
  8
0
  6
CONTINUOUS
 10
991.2592928714384
 20
710.6043484083216
 30
0.0
 40
5.000000000000496
 50
106.601549599008
 51
343.3984504009908
  0
ARC
  5
74
  8
0
  6
CONTINUOUS
 10
989.2592928714384
 20
717.3125523408219
 30
0.0
 40
2.000000000000227
 50
286.6015495990412
 51
0.0
  0
LINE
  5
75
  8
0
  6
CONTINUOUS
 10
991.2592928714389
 20
717.3125523408219
 30
0.0
 11
991.2592928714389
 21
746.604348408322
 31
0.0
  0
LINE
  5
76
  8
0
  6
CONTINUOUS
 10
991.2592928714389
 20
746.604348408322
 30
0.0
 11
971.2592928714389
 21
746.604348408322
 31
0.0
  0
LINE
  5
77
  8
0
  6
CONTINUOUS
 10
971.2592928714389
 20
746.604348408322
 30
0.0
 11
971.2592928714389
 21
717.3125523408219
 31
0.0
  0
ARC
  5
78
  8
0
  6
CONTINUOUS
 10
973.2592928714391
 20
717.3125523408219
 30
0.0
 40
2.000000000000341
 50
180.0
 51
253.3984504009557
  0
ARC
  5
79
  8
0
  6
CONTINUOUS
 10
971.2592928714391
 20
710.6043484083218
 30
0.0
 40
5.000000000000496
 50
196.6015495990121
 51
73.3984504009908
  0
ARC
  5
7A
  8
0
  6
CONTINUOUS
 10
964.5510889389388
 20
708.6043484083216
 30
0.0
 40
2.000000000000341
 50
16.6015495990403
 51
90.00000000000325
  0
LINE
  5
7B
  8
0
  6
CONTINUOUS
 10
964.5510889389388
 20
710.6043484083219
 30
0.0
 11
961.2592928714389
 21
710.6043484083218
 31
0.0
  0
LINE
  5
7C
  8
0
  6
CONTINUOUS
 10
961.2592928714389
 20
710.6043484083218
 30
0.0
 11
961.2592928714389
 21
486.6043484083218
 31
0.0
  0
LINE
  5
7D
  8
0
  6
CONTINUOUS
 10
961.2592928714389
 20
486.6043484083218
 30
0.0
 11
964.5510889389388
 21
486.6043484083216
 31
0.0
  0
ARC
  5
7E
  8
0
  6
CONTINUOUS
 10
964.5510889389388
 20
488.6043484083219
 30
0.0
 40
2.000000000000341
 50
270.0
 51
343.3984504009628
  0
ARC
  5
7F
  8
0
  6
CONTINUOUS
 10
971.2592928714384
 20
486.6043484083216
 30
0.0
 40
5.000000000000081
 50
286.601549599016
 51
163.3984504009839
  0
ARC
  5
80
  8
0
  6
CONTINUOUS
 10
973.2592928714394
 20
479.8961444758218
 30
0.0
 40
2.000000000000568
 50
106.6015495990523
 51
180.0
  0
LINE
  5
81
  8
0
  6
CONTINUOUS
 10
971.2592928714389
 20
479.8961444758218
 30
0.0
 11
971.2592928714389
 21
450.6043484083218
 31
0.0
  0
LINE
  5
82
  8
0
  6
CONTINUOUS
 10
971.2592928714389
 20
450.6043484083218
 30
0.0
 11
991.2592928714389
 21
450.6043484083218
 31
0.0
  0
LINE
  5
83
  8
0
  6
CONTINUOUS
 10
991.2592928714389
 20
450.6043484083218
 30
0.0
 11
991.2592928714389
 21
479.8961444758218
 31
0.0
  0
ARC
  5
84
  8
0
  6
CONTINUOUS
 10
989.2592928714389
 20
479.8961444758218
 30
0.0
 40
2.0
 50
0.0
 51
73.39845040100076
  0
ARC
  5
85
  8
0
  6
CONTINUOUS
 10
991.2592928714389
 20
486.604348408322
 30
0.0
 40
5.000000000000301
 50
16.60154959901158
 51
253.3984504009983
  0
ARC
  5
86
  8
0
  6
CONTINUOUS
 10
906.9674968039387
 20
756.604348408322
 30
0.0
 40
2.000000000000341
 50
196.6015495990403
 51
270.0
  0
LINE
  5
87
  8
0
  6
CONTINUOUS
 10
906.9674968039387
 20
754.6043484083217
 30
0.0
 11
910.2592928714388
 21
754.6043484083218
 31
0.0
  0
LINE
  5
88
  8
0
  6
CONTINUOUS
 10
910.2592928714388
 20
754.6043484083218
 30
0.0
 11
910.2592928714388
 21
978.6043484083218
 31
0.0
  0
LINE
  5
89
  8
0
  6
CONTINUOUS
 10
910.2592928714388
 20
978.6043484083218
 30
0.0
 11
906.9674968039387
 21
978.6043484083218
 31
0.0
  0
ARC
  5
8A
  8
0
  6
CONTINUOUS
 10
906.9674968039387
 20
976.6043484083214
 30
0.0
 40
2.000000000000455
 50
90.0
 51
163.3984504009535
  0
ARC
  5
8B
  8
0
  6
CONTINUOUS
 10
900.2592928714384
 20
978.6043484083216
 30
0.0
 40
5.000000000000496
 50
106.601549599008
 51
343.3984504009908
  0
ARC
  5
8C
  8
0
  6
CONTINUOUS
 10
898.2592928714386
 20
985.3125523408219
 30
0.0
 40
2.000000000000227
 50
286.6015495990412
 51
0.0
  0
LINE
  5
8D
  8
0
  6
CONTINUOUS
 10
900.2592928714388
 20
985.3125523408219
 30
0.0
 11
900.2592928714388
 21
1014.604348408322
 31
0.0
  0
LINE
  5
8E
  8
0
  6
CONTINUOUS
 10
900.2592928714388
 20
1014.604348408322
 30
0.0
 11
880.2592928714388
 21
1014.604348408322
 31
0.0
  0
LINE
  5
8F
  8
0
  6
CONTINUOUS
 10
880.2592928714388
 20
1014.604348408322
 30
0.0
 11
880.2592928714388
 21
985.3125523408219
 31
0.0
  0
ARC
  5
90
  8
0
  6
CONTINUOUS
 10
882.2592928714391
 20
985.3125523408219
 30
0.0
 40
2.000000000000341
 50
180.0
 51
253.3984504009557
  0
ARC
  5
91
  8
0
  6
CONTINUOUS
 10
880.2592928714391
 20
978.6043484083218
 30
0.0
 40
5.000000000000496
 50
196.6015495990121
 51
73.3984504009908
  0
ARC
  5
92
  8
0
  6
CONTINUOUS
 10
873.5510889389388
 20
976.6043484083216
 30
0.0
 40
2.000000000000341
 50
16.6015495990403
 51
90.00000000000325
  0
LINE
  5
93
  8
0
  6
CONTINUOUS
 10
873.5510889389387
 20
978.6043484083219
 30
0.0
 11
870.2592928714388
 21
978.6043484083218
 31
0.0
  0
LINE
  5
94
  8
0
  6
CONTINUOUS
 10
870.2592928714388
 20
978.6043484083218
 30
0.0
 11
870.2592928714388
 21
754.6043484083218
 31
0.0
  0
LINE
  5
95
  8
0
  6
CONTINUOUS
 10
870.2592928714388
 20
754.6043484083218
 30
0.0
 11
873.5510889389387
 21
754.6043484083216
 31
0.0
  0
ARC
  5
96
  8
0
  6
CONTINUOUS
 10
873.5510889389387
 20
756.6043484083219
 30
0.0
 40
2.000000000000341
 50
270.0
 51
343.3984504009628
  0
ARC
  5
97
  8
0
  6
CONTINUOUS
 10
880.2592928714384
 20
754.6043484083216
 30
0.0
 40
5.000000000000081
 50
286.601549599016
 51
163.3984504009839
  0
ARC
  5
98
  8
0
  6
CONTINUOUS
 10
882.2592928714394
 20
747.8961444758218
 30
0.0
 40
2.000000000000568
 50
106.6015495990528
 51
180.0
  0
LINE
  5
99
  8
0
  6
CONTINUOUS
 10
880.2592928714388
 20
747.8961444758218
 30
0.0
 11
880.2592928714388
 21
718.6043484083218
 31
0.0
  0
LINE
  5
9A
  8
0
  6
CONTINUOUS
 10
880.2592928714388
 20
718.6043484083218
 30
0.0
 11
900.2592928714388
 21
718.6043484083218
 31
0.0
  0
LINE
  5
9B
  8
0
  6
CONTINUOUS
 10
900.2592928714388
 20
718.6043484083218
 30
0.0
 11
900.2592928714388
 21
747.8961444758218
 31
0.0
  0
ARC
  5
9C
  8
0
  6
CONTINUOUS
 10
898.2592928714388
 20
747.8961444758218
 30
0.0
 40
2.0
 50
0.0
 51
73.39845040100029
  0
ARC
  5
9D
  8
0
  6
CONTINUOUS
 10
900.259292871439
 20
754.604348408322
 30
0.0
 40
5.000000000000301
 50
16.60154959901158
 51
253.3984504009983
  0
ARC
  5
9E
  8
0
  6
CONTINUOUS
 10
534.48342337214
 20
41.12498032212284
 30
0.0
 40
9.999999999998323
 50
5.739170477259896
 51
90.00000000000651
  0
LINE
  5
9F
  8
0
  6
CONTINUOUS
 10
534.4834233721389
 20
51.12498032212116
 30
0.0
 11
54.48342337213876
 21
51.12498032212216
 31
0.0
  0
ARC
  5
A0
  8
0
  6
CONTINUOUS
 10
54.48342337213876
 20
41.12498032212287
 30
0.0
 40
9.99999999999929
 50
90.0
 51
174.2608295227389
  0
ARC
  5
A1
  8
0
  6
CONTINUOUS
 10
54.48342337213877
 20
43.12498032212078
 30
0.0
 40
9.999999999999304
 50
185.7391704772612
 51
269.9999999999996
  0
LINE
  5
A2
  8
0
  6
CONTINUOUS
 10
54.4834233721387
 20
33.12498032212147
 30
0.0
 11
534.4834233721388
 21
33.12498032212238
 31
0.0
  0
ARC
  5
A3
  8
0
  6
CONTINUOUS
 10
534.4834233721388
 20
43.12498032212223
 30
0.0
 40
9.999999999999844
 50
270.0
 51
354.2608295227288
  0
ARC
  5
A5
  8
LAYER_01
  6
CONTINUOUS
 10
647.486649964775
 20
759.8345419097235
 30
0.0
 40
1.999999999936233
 50
178.6394254180001
 51
252.0378758210947
  0
ARC
  5
A6
  8
LAYER_01
  6
CONTINUOUS
 10
645.3279323995062
 20
753.1757178039034
 30
0.0
 40
4.999999999981887
 50
195.2409750172627
 51
72.03787581885187
  0
ARC
  5
A7
  8
LAYER_01
  6
CONTINUOUS
 10
638.5741311957382
 20
751.3355631092966
 30
0.0
 40
2.000000000025273
 50
15.24097501861618
 51
88.63942541800209
  0
LINE
  5
A8
  8
LAYER_01
  6
CONTINUOUS
 10
638.62161974469
 20
753.3349992392641
 30
0.0
 11
622.04270310519
 21
753.7287646027643
 31
0.0
  0
ARC
  5
A9
  8
LAYER_01
  6
CONTINUOUS
 10
621.9952145562388
 20
751.7293284728192
 30
0.0
 40
2.000000000002756
 50
88.63942541800306
 51
162.0378758197173
  0
ARC
  5
AA
  8
LAYER_01
  6
CONTINUOUS
 10
615.3363904503362
 20
753.888046038122
 30
0.0
 40
5.00000000000423
 50
105.240975016788
 51
342.0378758193252
  0
ARC
  5
AB
  8
LAYER_01
  6
CONTINUOUS
 10
613.4962357558321
 20
760.6418472419218
 30
0.0
 40
2.000000000006736
 50
285.2409750167247
 51
358.6394254180025
  0
LINE
  5
AC
  8
LAYER_01
  6
CONTINUOUS
 10
615.4956718857811
 20
760.5943586929706
 30
0.0
 11
615.6045059554809
 21
765.1766585527705
 31
0.0
  0
ARC
  5
AD
  8
LAYER_01
  6
CONTINUOUS
 10
613.6050698255144
 20
765.2241471017222
 30
0.0
 40
2.00000000002425
 50
358.6394254180014
 51
72.03787581775846
  0
ARC
  5
AE
  8
LAYER_01
  6
CONTINUOUS
 10
615.7637873909289
 20
771.8829712076222
 30
0.0
 40
5.000000000014409
 50
15.24097501678052
 51
252.0378758188809
  0
ARC
  5
AF
  8
LAYER_01
  6
CONTINUOUS
 10
622.517588594739
 20
773.7231259021288
 30
0.0
 40
2.000000000006966
 50
195.2409750167365
 51
268.6394254179994
  0
LINE
  5
B0
  8
LAYER_01
  6
CONTINUOUS
 10
622.4701000457876
 20
771.7236897721796
 30
0.0
 11
639.0490166851877
 21
771.3299244087794
 31
0.0
  0
ARC
  5
B1
  8
LAYER_01
  6
CONTINUOUS
 10
639.0965052341394
 20
773.329360538746
 30
0.0
 40
2.00000000002425
 50
268.6394254180014
 51
342.0378758177698
  0
ARC
  5
B2
  8
LAYER_01
  6
CONTINUOUS
 10
645.7553293400172
 20
771.1706429733385
 30
0.0
 40
4.999999999991442
 50
285.240975017707
 51
162.0378758188761
  0
ARC
  5
B3
  8
LAYER_01
  6
CONTINUOUS
 10
647.5954840345963
 20
764.4168417696228
 30
0.0
 40
1.999999999957611
 50
105.2409750171352
 51
178.6394254180017
  0
LINE
  5
B4
  8
LAYER_01
  6
CONTINUOUS
 10
645.5960479046964
 20
764.4643303185729
 30
0.0
 11
645.4872138348965
 21
759.8820304586732
 31
0.0
  0
ARC
  5
B5
  8
LAYER_01
  6
CONTINUOUS
 10
85.9472252445388
 20
619.8340215549217
 30
0.0
 40
2.000000000000114
 50
16.60154959903233
 51
89.99999999999919
  0
LINE
  5
B6
  8
LAYER_01
  6
CONTINUOUS
 10
85.94722524453883
 20
621.8340215549218
 30
0.0
 11
79.3636331095388
 21
621.8340215549217
 31
0.0
  0
ARC
  5
B7
  8
LAYER_01
  6
CONTINUOUS
 10
79.3636331095388
 20
619.8340215549214
 30
0.0
 40
2.000000000000341
 50
90.0
 51
163.398450400956
  0
ARC
  5
B8
  8
LAYER_01
  6
CONTINUOUS
 10
72.65542917703841
 20
621.8340215549217
 30
0.0
 40
5.00000000000067
 50
106.601549599009
 51
343.3984504009887
  0
ARC
  5
B9
  8
LAYER_01
  6
CONTINUOUS
 10
70.65542917703871
 20
628.5422254874218
 30
0.0
 40
2.000000000000114
 50
286.6015495990355
 51
0.0
  0
LINE
  5
BA
  8
LAYER_01
  6
CONTINUOUS
 10
72.65542917703883
 20
628.5422254874218
 30
0.0
 11
72.65542917703884
 21
633.1258176224219
 31
0.0
  0
ARC
  5
BB
  8
LAYER_01
  6
CONTINUOUS
 10
70.65542917703866
 20
633.1258176224219
 30
0.0
 40
2.000000000000185
 50
0.0
 51
73.39845040096462
  0
ARC
  5
BC
  8
LAYER_01
  6
CONTINUOUS
 10
72.65542917703883
 20
639.8340215549217
 30
0.0
 40
5.000000000000136
 50
16.60154959901589
 51
253.3984504009855
  0
ARC
  5
BD
  8
LAYER_01
  6
CONTINUOUS
 10
79.3636331095388
 20
641.8340215549222
 30
0.0
 40
2.000000000000341
 50
196.6015495990407
 51
270.0000000000004
  0
LINE
  5
BE
  8
LAYER_01
  6
CONTINUOUS
 10
79.36363310953881
 20
639.8340215549218
 30
0.0
 11
85.9472252445388
 21
639.8340215549218
 31
0.0
  0
ARC
  5
BF
  8
LAYER_01
  6
CONTINUOUS
 10
85.9472252445388
 20
641.8340215549221
 30
0.0
 40
2.000000000000227
 50
270.0
 51
343.3984504009618
  0
ARC
  5
C0
  8
LAYER_01
  6
CONTINUOUS
 10
92.65542917703895
 20
639.8340215549223
 30
0.0
 40
5.00000000000066
 50
286.6015495990088
 51
163.3984504009914
  0
ARC
  5
C1
  8
LAYER_01
  6
CONTINUOUS
 10
94.65542917703918
 20
633.1258176224219
 30
0.0
 40
2.000000000000441
 50
106.6015495990462
 51
180.0
  0
LINE
  5
C2
  8
LAYER_01
  6
CONTINUOUS
 10
92.65542917703874
 20
633.1258176224219
 30
0.0
 11
92.65542917703877
 21
628.5422254874218
 31
0.0
  0
ARC
  5
C3
  8
LAYER_01
  6
CONTINUOUS
 10
94.65542917703885
 20
628.5422254874218
 30
0.0
 40
2.000000000000085
 50
180.0
 51
253.3984504009645
  0
ARC
  5
C4
  8
LAYER_01
  6
CONTINUOUS
 10
92.65542917703866
 20
621.8340215549217
 30
0.0
 40
5.000000000000509
 50
196.6015495990133
 51
73.39845040098572
  0
ARC
  5
C5
  8
LAYER_01
  6
CONTINUOUS
 10
484.7471489123631
 20
737.3864763605213
 30
0.0
 40
2.000000000024307
 50
178.6394254180015
 51
252.0378758177595
  0
ARC
  5
C6
  8
LAYER_01
  6
CONTINUOUS
 10
482.5884313469579
 20
730.7276522546516
 30
0.0
 40
4.999999999983019
 50
195.2409750172364
 51
72.03787581887524
  0
ARC
  5
C7
  8
LAYER_01
  6
CONTINUOUS
 10
475.8346301432402
 20
728.8874975601825
 30
0.0
 40
1.999999999939415
 50
15.2409750152555
 51
88.63942541800232
  0
LINE
  5
C8
  8
LAYER_01
  6
CONTINUOUS
 10
475.8821186921899
 20
730.8869336900642
 30
0.0
 11
459.3032020526899
 21
731.2806990534641
 31
0.0
  0
ARC
  5
C9
  8
LAYER_01
  6
CONTINUOUS
 10
459.2557135037381
 20
729.2812629234977
 30
0.0
 40
2.000000000024195
 50
88.63942541799969
 51
162.0378758177657
  0
ARC
  5
CA
  8
LAYER_01
  6
CONTINUOUS
 10
452.5968893978385
 20
731.439980488912
 30
0.0
 40
5.000000000014533
 50
105.2409750167837
 51
342.0378758188787
  0
ARC
  5
CB
  8
LAYER_01
  6
CONTINUOUS
 10
450.7567347033317
 20
738.1937816927219
 30
0.0
 40
2.000000000006907
 50
285.2409750167333
 51
358.6394254180026
  0
LINE
  5
CC
  8
LAYER_01
  6
CONTINUOUS
 10
452.7561708332809
 20
738.1462931437707
 30
0.0
 11
452.8650049029811
 21
742.7285930035707
 31
0.0
  0
ARC
  5
CD
  8
LAYER_01
  6
CONTINUOUS
 10
450.865568773015
 20
742.7760815525227
 30
0.0
 40
2.000000000023858
 50
358.6394254179946
 51
72.03787581776729
  0
ARC
  5
CE
  8
LAYER_01
  6
CONTINUOUS
 10
453.0242863384195
 20
749.4349056583925
 30
0.0
 40
4.999999999983038
 50
15.24097501723085
 51
252.0378758188788
  0
ARC
  5
CF
  8
LAYER_01
  6
CONTINUOUS
 10
459.7780875421374
 20
751.2750603528611
 30
0.0
 40
1.999999999939416
 50
195.2409750152555
 51
268.6394254180007
  0
LINE
  5
D0
  8
LAYER_01
  6
CONTINUOUS
 10
459.7305989931876
 20
749.2756242229794
 30
0.0
 11
476.3095156326876
 21
748.8818588595794
 31
0.0
  0
ARC
  5
D1
  8
LAYER_01
  6
CONTINUOUS
 10
476.3570041816394
 20
750.8812949895461
 30
0.0
 40
2.000000000024364
 50
268.6394254180015
 51
342.0378758177636
  0
ARC
  5
D2
  8
LAYER_01
  6
CONTINUOUS
 10
483.0158282875387
 20
748.7225774241311
 30
0.0
 40
5.000000000014008
 50
285.2409750167885
 51
162.037875818874
  0
ARC
  5
D3
  8
LAYER_01
  6
CONTINUOUS
 10
484.8559829820456
 20
741.9687762203216
 30
0.0
 40
2.000000000006907
 50
105.2409750167286
 51
178.6394254180026
  0
LINE
  5
D4
  8
LAYER_01
  6
CONTINUOUS
 10
482.8565468520965
 20
742.0162647692729
 30
0.0
 11
482.7477127823965
 21
737.433964909473
 31
0.0
  0
ARC
  5
D5
  8
LAYER_01
  6
CONTINUOUS
 10
79.3636331095388
 20
837.8340215549215
 30
0.0
 40
2.000000000000341
 50
90.0
 51
163.3984504009593
  0
ARC
  5
D6
  8
LAYER_01
  6
CONTINUOUS
 10
72.65542917703864
 20
839.8340215549214
 30
0.0
 40
5.000000000000518
 50
106.6015495990098
 51
343.3984504009922
  0
ARC
  5
D7
  8
LAYER_01
  6
CONTINUOUS
 10
70.65542917703868
 20
846.5422254874218
 30
0.0
 40
2.000000000000142
 50
286.6015495990367
 51
0.0
  0
LINE
  5
D8
  8
LAYER_01
  6
CONTINUOUS
 10
72.65542917703883
 20
846.5422254874218
 30
0.0
 11
72.65542917703877
 21
851.1258176224219
 31
0.0
  0
ARC
  5
D9
  8
LAYER_01
  6
CONTINUOUS
 10
70.65542917703868
 20
851.1258176224219
 30
0.0
 40
2.000000000000085
 50
0.0
 51
73.39845040096448
  0
ARC
  5
DA
  8
LAYER_01
  6
CONTINUOUS
 10
72.65542917703839
 20
857.8340215549221
 30
0.0
 40
5.000000000000584
 50
16.60154959900755
 51
253.398450400992
  0
ARC
  5
DB
  8
LAYER_01
  6
CONTINUOUS
 10
79.36363310953878
 20
859.8340215549222
 30
0.0
 40
2.000000000000455
 50
196.6015495990464
 51
270.0
  0
LINE
  5
DC
  8
LAYER_01
  6
CONTINUOUS
 10
79.3636331095388
 20
857.834021554922
 30
0.0
 11
85.9472252445388
 21
857.8340215549217
 31
0.0
  0
ARC
  5
DD
  8
LAYER_01
  6
CONTINUOUS
 10
85.9472252445388
 20
859.8340215549222
 30
0.0
 40
2.000000000000455
 50
270.0
 51
343.398450400957
  0
ARC
  5
DE
  8
LAYER_01
  6
CONTINUOUS
 10
92.65542917703891
 20
857.8340215549222
 30
0.0
 40
5.000000000000536
 50
286.6015495990105
 51
163.3984504009909
  0
ARC
  5
DF
  8
LAYER_01
  6
CONTINUOUS
 10
94.6554291770391
 20
851.1258176224219
 30
0.0
 40
2.000000000000384
 50
106.6015495990422
 51
180.0
  0
LINE
  5
E0
  8
LAYER_01
  6
CONTINUOUS
 10
92.65542917703871
 20
851.1258176224219
 30
0.0
 11
92.65542917703877
 21
846.5422254874218
 31
0.0
  0
ARC
  5
E1
  8
LAYER_01
  6
CONTINUOUS
 10
94.65542917703891
 20
846.5422254874218
 30
0.0
 40
2.000000000000142
 50
180.0
 51
253.3984504009629
  0
ARC
  5
E2
  8
LAYER_01
  6
CONTINUOUS
 10
92.65542917703905
 20
839.8340215549218
 30
0.0
 40
5.000000000000399
 50
196.6015495990122
 51
73.39845040098993
  0
ARC
  5
E3
  8
LAYER_01
  6
CONTINUOUS
 10
85.9472252445388
 20
837.8340215549214
 30
0.0
 40
2.000000000000455
 50
16.60154959904654
 51
90.00000000000082
  0
LINE
  5
E4
  8
LAYER_01
  6
CONTINUOUS
 10
85.94722524453877
 20
839.8340215549218
 30
0.0
 11
79.3636331095388
 21
839.8340215549218
 31
0.0
  0
ARC
  5
E5
  8
LAYER_01
  6
CONTINUOUS
 10
189.4189186246388
 20
209.2401704536215
 30
0.0
 40
2.000000000000199
 50
16.60154959904528
 51
90.00000000000162
  0
LINE
  5
E6
  8
LAYER_01
  6
CONTINUOUS
 10
189.4189186246387
 20
211.2401704536217
 30
0.0
 11
182.8353264896388
 21
211.2401704536218
 31
0.0
  0
ARC
  5
E7
  8
LAYER_01
  6
CONTINUOUS
 10
182.8353264896388
 20
209.2401704536215
 30
0.0
 40
2.000000000000341
 50
90.0
 51
163.3984504009543
  0
ARC
  5
E8
  8
LAYER_01
  6
CONTINUOUS
 10
176.1271225571386
 20
211.2401704536217
 30
0.0
 40
5.000000000000403
 50
106.6015495990119
 51
343.3984504009898
  0
ARC
  5
E9
  8
LAYER_01
  6
CONTINUOUS
 10
174.1271225571385
 20
217.9483743861217
 30
0.0
 40
2.000000000000256
 50
286.6015495990397
 51
0.0000000000032569
  0
LINE
  5
EA
  8
LAYER_01
  6
CONTINUOUS
 10
176.1271225571388
 20
217.9483743861218
 30
0.0
 11
176.1271225571388
 21
222.5319665211218
 31
0.0
  0
ARC
  5
EB
  8
LAYER_01
  6
CONTINUOUS
 10
174.1271225571383
 20
222.5319665211218
 30
0.0
 40
2.00000000000054
 50
359.9999999999992
 51
73.39845040095439
  0
ARC
  5
EC
  8
LAYER_01
  6
CONTINUOUS
 10
176.1271225571384
 20
229.2401704536222
 30
0.0
 40
5.000000000000461
 50
16.60154959900766
 51
253.398450400991
  0
ARC
  5
ED
  8
LAYER_01
  6
CONTINUOUS
 10
182.8353264896388
 20
231.2401704536223
 30
0.0
 40
2.000000000000426
 50
196.6015495990468
 51
270.0
  0
LINE
  5
EE
  8
LAYER_01
  6
CONTINUOUS
 10
182.8353264896388
 20
229.2401704536219
 30
0.0
 11
189.4189186246388
 21
229.2401704536219
 31
0.0
  0
ARC
  5
EF
  8
LAYER_01
  6
CONTINUOUS
 10
189.4189186246388
 20
231.2401704536222
 30
0.0
 40
2.000000000000341
 50
270.0
 51
343.3984504009559
  0
ARC
  5
F0
  8
LAYER_01
  6
CONTINUOUS
 10
196.1271225571387
 20
229.2401704536221
 30
0.0
 40
5.000000000000719
 50
286.6015495990115
 51
163.3984504009902
  0
ARC
  5
F1
  8
LAYER_01
  6
CONTINUOUS
 10
198.1271225571388
 20
222.5319665211218
 30
0.0
 40
2.000000000000227
 50
106.6015495990373
 51
180.0
  0
LINE
  5
F2
  8
LAYER_01
  6
CONTINUOUS
 10
196.1271225571386
 20
222.5319665211218
 30
0.0
 11
196.1271225571387
 21
217.9483743861218
 31
0.0
  0
ARC
  5
F3
  8
LAYER_01
  6
CONTINUOUS
 10
198.1271225571392
 20
217.9483743861218
 30
0.0
 40
2.000000000000483
 50
180.0000000000008
 51
253.398450400957
  0
ARC
  5
F4
  8
LAYER_01
  6
CONTINUOUS
 10
196.1271225571387
 20
211.2401704536217
 30
0.0
 40
5.000000000000372
 50
196.6015495990104
 51
73.39845040098527
  0
ARC
  5
F5
  8
LAYER_01
  6
CONTINUOUS
 10
147.5253753043388
 20
926.3878827704214
 30
0.0
 40
2.000000000000455
 50
16.60154959904654
 51
90.0
  0
LINE
  5
F6
  8
LAYER_01
  6
CONTINUOUS
 10
147.5253753043388
 20
928.3878827704218
 30
0.0
 11
140.9417831693388
 21
928.3878827704218
 31
0.0
  0
ARC
  5
F7
  8
LAYER_01
  6
CONTINUOUS
 10
140.9417831693388
 20
926.3878827704214
 30
0.0
 40
2.000000000000455
 50
90.0
 51
163.3984504009568
  0
ARC
  5
F8
  8
LAYER_01
  6
CONTINUOUS
 10
134.2335792368386
 20
928.3878827704212
 30
0.0
 40
5.000000000000518
 50
106.6015495990102
 51
343.3984504009922
  0
ARC
  5
F9
  8
LAYER_01
  6
CONTINUOUS
 10
132.2335792368382
 20
935.0960867029219
 30
0.0
 40
2.000000000000654
 50
286.6015495990478
 51
0.0
  0
LINE
  5
FA
  8
LAYER_01
  6
CONTINUOUS
 10
134.2335792368388
 20
935.0960867029219
 30
0.0
 11
134.2335792368388
 21
939.6796788379218
 31
0.0
  0
ARC
  5
FB
  8
LAYER_01
  6
CONTINUOUS
 10
132.2335792368385
 20
939.6796788379218
 30
0.0
 40
2.00000000000027
 50
0.0
 51
73.39845040096034
  0
ARC
  5
FC
  8
LAYER_01
  6
CONTINUOUS
 10
134.2335792368387
 20
946.3878827704219
 30
0.0
 40
5.000000000000335
 50
16.60154959901255
 51
253.3984504009879
  0
ARC
  5
FD
  8
LAYER_01
  6
CONTINUOUS
 10
140.9417831693388
 20
948.3878827704223
 30
0.0
 40
2.000000000000455
 50
196.6015495990432
 51
270.0
  0
LINE
  5
FE
  8
LAYER_01
  6
CONTINUOUS
 10
140.9417831693388
 20
946.3878827704218
 30
0.0
 11
147.5253753043388
 21
946.3878827704217
 31
0.0
  0
ARC
  5
FF
  8
LAYER_01
  6
CONTINUOUS
 10
147.5253753043388
 20
948.387882770422
 30
0.0
 40
2.000000000000341
 50
270.0
 51
343.3984504009595
  0
ARC
  5
100
  8
LAYER_01
  6
CONTINUOUS
 10
154.2335792368388
 20
946.387882770422
 30
0.0
 40
5.000000000000386
 50
286.6015495990121
 51
163.3984504009904
  0
ARC
  5
101
  8
LAYER_01
  6
CONTINUOUS
 10
156.2335792368395
 20
939.6796788379218
 30
0.0
 40
2.000000000000767
 50
106.6015495990525
 51
180.0
  0
LINE
  5
102
  8
LAYER_01
  6
CONTINUOUS
 10
154.2335792368387
 20
939.6796788379218
 30
0.0
 11
154.2335792368388
 21
935.0960867029219
 31
0.0
  0
ARC
  5
103
  8
LAYER_01
  6
CONTINUOUS
 10
156.233579236839
 20
935.0960867029219
 30
0.0
 40
2.000000000000256
 50
180.0
 51
253.3984504009595
  0
ARC
  5
104
  8
LAYER_01
  6
CONTINUOUS
 10
154.233579236839
 20
928.3878827704218
 30
0.0
 40
5.000000000000537
 50
196.6015495990118
 51
73.39845040098922
  0
ARC
  5
105
  8
LAYER_01
  6
CONTINUOUS
 10
632.7930840537385
 20
509.5371679096094
 30
0.0
 40
2.000000000012709
 50
14.11243228345426
 51
88.63942541800006
  0
LINE
  5
106
  8
LAYER_01
  6
CONTINUOUS
 10
632.84057260269
 20
511.5366040395643
 30
0.0
 11
616.3378140835899
 21
511.9285605737641
 31
0.0
  0
ARC
  5
107
  8
LAYER_01
  6
CONTINUOUS
 10
616.2903255346376
 20
509.9291244437741
 30
0.0
 40
2.000000000047677
 50
88.63942541800105
 51
163.1664185518619
  0
ARC
  5
108
  8
LAYER_01
  6
CONTINUOUS
 10
609.5902760273422
 20
511.9562743151008
 30
0.0
 40
5.000000000026072
 50
105.24097501679
 51
343.1664185529893
  0
ARC
  5
109
  8
LAYER_01
  6
CONTINUOUS
 10
607.7501213328317
 20
518.710075518922
 30
0.0
 40
2.00000000000708
 50
285.2409750167356
 51
358.6394254179995
  0
LINE
  5
10A
  8
LAYER_01
  6
CONTINUOUS
 10
609.749557462781
 20
518.6625869699707
 30
0.0
 11
609.8583915324809
 21
523.2448868297706
 31
0.0
  0
ARC
  5
10B
  8
LAYER_01
  6
CONTINUOUS
 10
607.8589554025143
 20
523.2923753787221
 30
0.0
 40
2.000000000024358
 50
358.639425418008
 51
72.03787581768117
  0
ARC
  5
10C
  8
LAYER_01
  6
CONTINUOUS
 10
610.0176729679229
 20
529.9511994846004
 30
0.0
 40
4.99999999999188
 50
16.3761854133613
 51
252.0378758188999
  0
ARC
  5
10D
  8
LAYER_01
  6
CONTINUOUS
 10
616.7336916822376
 20
531.9247983871791
 30
0.0
 40
1.99999999995715
 50
196.3761854116761
 51
268.6394254180079
  0
LINE
  5
10E
  8
LAYER_01
  6
CONTINUOUS
 10
616.6862031332877
 20
529.9253622572796
 30
0.0
 11
633.3469774339876
 21
529.5296526949794
 31
0.0
  0
ARC
  5
10F
  8
LAYER_01
  6
CONTINUOUS
 10
633.394465982939
 20
531.5290888249309
 30
0.0
 40
2.000000000009239
 50
268.6394254180009
 51
340.9026654218612
  0
ARC
  5
110
  8
LAYER_01
  6
CONTINUOUS
 10
640.0092149170487
 20
529.2388712503223
 30
0.0
 40
5.000000000015796
 50
285.2409750172852
 51
160.9026654224485
  0
ARC
  5
111
  8
LAYER_01
  6
CONTINUOUS
 10
641.8493696116639
 20
522.4850700465214
 30
0.0
 40
2.000000000025268
 50
105.2409750185419
 51
178.6394254180086
  0
LINE
  5
112
  8
LAYER_01
  6
CONTINUOUS
 10
639.8499334816963
 20
522.5325585954729
 30
0.0
 11
639.7410994118964
 21
517.9502587356728
 31
0.0
  0
ARC
  5
113
  8
LAYER_01
  6
CONTINUOUS
 10
641.7405355418412
 20
517.9027701867217
 30
0.0
 40
2.000000000002529
 50
178.6394254180029
 51
252.0378758197246
  0
ARC
  5
114
  8
LAYER_01
  6
CONTINUOUS
 10
639.5818179765372
 20
511.243946080817
 30
0.0
 40
5.000000000006633
 50
194.1124322833573
 51
72.03787581931631
  0
LINE
  5
115
  8
0
  6
CONTINUOUS
 10
763.9142999137388
 20
686.202936820122
 30
0.0
 11
733.9143005842387
 21
686.202936820122
 31
0.0
  0
LINE
  5
116
  8
0
  6
CONTINUOUS
 10
733.9143005842387
 20
686.202936820122
 30
0.0
 11
733.9143002489387
 21
672.1206264262219
 31
0.0
  0
ARC
  5
117
  8
0
  6
CONTINUOUS
 10
735.9143002489061
 20
672.1206264262219
 30
0.0
 40
1.999999999967372
 50
180.0
 51
265.9146254196444
  0
ARC
  5
118
  8
0
  6
CONTINUOUS
 10
735.4156004139038
 20
665.1384134192961
 30
0.0
 40
4.999999999997708
 50
171.2528784237078
 51
85.91462541778613
  0
ARC
  5
119
  8
0
  6
CONTINUOUS
 10
728.4970163527387
 20
666.2029295482972
 30
0.0
 40
2.00000000002467
 50
351.2528784251521
 51
90.0
  0
LINE
  5
11A
  8
0
  6
CONTINUOUS
 10
728.4970163527387
 20
668.2029295483219
 30
0.0
 11
708.9143011430388
 21
668.2029301444218
 31
0.0
  0
LINE
  5
11B
  8
0
  6
CONTINUOUS
 10
708.9143011430388
 20
668.2029301444218
 30
0.0
 11
708.9143011430388
 21
388.2029289523218
 31
0.0
  0
LINE
  5
11C
  8
0
  6
CONTINUOUS
 10
708.9143011430388
 20
388.2029289523218
 30
0.0
 11
728.4970163527388
 21
388.2029295483218
 31
0.0
  0
ARC
  5
11D
  8
0
  6
CONTINUOUS
 10
728.4970163527389
 20
390.2029295483467
 30
0.0
 40
2.000000000024897
 50
269.9999999999968
 51
8.747121574843673
  0
ARC
  5
11E
  8
0
  6
CONTINUOUS
 10
735.4156004139043
 20
391.2674456773474
 30
0.0
 40
4.999999999997593
 50
274.0853745822088
 51
188.7471215762873
  0
ARC
  5
11F
  8
0
  6
CONTINUOUS
 10
735.9143002489059
 20
384.2852326704219
 30
0.0
 40
1.999999999967145
 50
94.08537458034952
 51
180.0
  0
LINE
  5
120
  8
0
  6
CONTINUOUS
 10
733.9143002489387
 20
384.2852326704219
 30
0.0
 11
733.9143005842387
 21
370.2029222765218
 31
0.0
  0
LINE
  5
121
  8
0
  6
CONTINUOUS
 10
733.9143005842387
 20
370.2029222765218
 30
0.0
 11
763.9142999137388
 21
370.2029222765218
 31
0.0
  0
LINE
  5
122
  8
0
  6
CONTINUOUS
 10
763.9142999137388
 20
370.2029222765218
 30
0.0
 11
763.9143002489387
 21
381.4947256158218
 31
0.0
  0
ARC
  5
123
  8
0
  6
CONTINUOUS
 10
761.9143002489385
 20
381.4947256158218
 30
0.0
 40
2.000000000000227
 50
0.0
 51
73.39845040095831
  0
ARC
  5
124
  8
0
  6
CONTINUOUS
 10
763.9143002489385
 20
388.2029295483219
 30
0.0
 40
5.000000000000551
 50
16.60154959901109
 51
253.3984504009909
  0
ARC
  5
125
  8
0
  6
CONTINUOUS
 10
770.6225041814389
 20
390.2029295483218
 30
0.0
 40
2.000000000000284
 50
196.6015495990309
 51
269.9999999999968
  0
LINE
  5
126
  8
0
  6
CONTINUOUS
 10
770.6225041814388
 20
388.2029295483215
 30
0.0
 11
788.9142993549387
 21
388.2029289523218
 31
0.0
  0
LINE
  5
127
  8
0
  6
CONTINUOUS
 10
788.9142993549387
 20
388.2029289523218
 30
0.0
 11
788.9142993549387
 21
668.2029301444218
 31
0.0
  0
LINE
  5
128
  8
0
  6
CONTINUOUS
 10
788.9142993549387
 20
668.2029301444218
 30
0.0
 11
770.6225041814388
 21
668.2029295483218
 31
0.0
  0
ARC
  5
129
  8
0
  6
CONTINUOUS
 10
770.6225041814388
 20
666.2029295483214
 30
0.0
 40
2.000000000000341
 50
90.0
 51
163.3984504009597
  0
ARC
  5
12A
  8
0
  6
CONTINUOUS
 10
763.9143002489385
 20
668.2029295483214
 30
0.0
 40
5.000000000000496
 50
106.6015495990092
 51
343.3984504009908
  0
ARC
  5
12B
  8
0
  6
CONTINUOUS
 10
761.9143002489384
 20
674.9111334808217
 30
0.0
 40
2.000000000000455
 50
286.6015495990434
 51
0.0
  0
LINE
  5
12C
  8
0
  6
CONTINUOUS
 10
763.9143002489388
 20
674.9111334808217
 30
0.0
 11
763.9142999137388
 21
686.202936820122
 31
0.0
  0
ARC
  5
12D
  8
LAYER_01
  6
CONTINUOUS
 10
470.05358300124
 20
487.0891023604752
 30
0.0
 40
1.999999999946525
 50
14.11243228198715
 51
88.639425417999
  0
LINE
  5
12E
  8
LAYER_01
  6
CONTINUOUS
 10
470.1010715501899
 20
489.088538490364
 30
0.0
 11
453.59831303099
 21
489.4804950244642
 31
0.0
  0
ARC
  5
12F
  8
LAYER_01
  6
CONTINUOUS
 10
453.5508244820388
 20
487.4810588945195
 30
0.0
 40
2.000000000002415
 50
88.63942541800283
 51
163.1664185513248
  0
ARC
  5
130
  8
LAYER_01
  6
CONTINUOUS
 10
446.850774974836
 20
489.5082087659221
 30
0.0
 40
5.000000000004233
 50
105.240975016786
 51
343.1664185520643
  0
ARC
  5
131
  8
LAYER_01
  6
CONTINUOUS
 10
445.0106202803322
 20
496.2620099697218
 30
0.0
 40
2.000000000006564
 50
285.2409750167245
 51
358.6394254180057
  0
LINE
  5
132
  8
LAYER_01
  6
CONTINUOUS
 10
447.010056410281
 20
496.2145214207707
 30
0.0
 11
447.1188904799811
 21
500.7968212805708
 31
0.0
  0
ARC
  5
133
  8
LAYER_01
  6
CONTINUOUS
 10
445.1194543500146
 20
500.8443098295223
 30
0.0
 40
2.000000000024246
 50
358.6394254180063
 51
72.03787581769048
  0
ARC
  5
134
  8
LAYER_01
  6
CONTINUOUS
 10
447.2781719154225
 20
507.5031339354007
 30
0.0
 40
4.99999999999201
 50
16.37618541335726
 51
252.0378758189038
  0
ARC
  5
135
  8
LAYER_01
  6
CONTINUOUS
 10
453.9941906297377
 20
509.4767328379791
 30
0.0
 40
1.999999999957267
 50
196.3761854116752
 51
268.6394254180047
  0
LINE
  5
136
  8
LAYER_01
  6
CONTINUOUS
 10
453.9467020807876
 20
507.4772967080796
 30
0.0
 11
470.6074763814876
 21
507.0815871457797
 31
0.0
  0
ARC
  5
137
  8
LAYER_01
  6
CONTINUOUS
 10
470.6549649304392
 20
509.0810232757311
 30
0.0
 40
2.000000000009131
 50
268.6394254179944
 51
340.9026654218544
  0
ARC
  5
138
  8
LAYER_01
  6
CONTINUOUS
 10
477.2697138645404
 20
506.7908057011248
 30
0.0
 40
5.000000000007297
 50
285.2409750168183
 51
160.9026654224451
  0
ARC
  5
139
  8
LAYER_01
  6
CONTINUOUS
 10
479.1098685590458
 20
500.0370044973216
 30
0.0
 40
2.000000000007022
 50
105.2409750166555
 51
178.6394254180011
  0
LINE
  5
13A
  8
LAYER_01
  6
CONTINUOUS
 10
477.1104324290965
 20
500.0844930462729
 30
0.0
 11
477.0015983593965
 21
495.5021931864729
 31
0.0
  0
ARC
  5
13B
  8
LAYER_01
  6
CONTINUOUS
 10
479.0010344893627
 20
495.4547046375212
 30
0.0
 40
2.000000000023909
 50
178.6394254180012
 51
252.0378758177745
  0
ARC
  5
13C
  8
LAYER_01
  6
CONTINUOUS
 10
476.842316923958
 20
488.7958805316485
 30
0.0
 40
4.999999999986136
 50
194.1124322837883
 51
72.03787581888547
  0
ARC
  5
13D
  8
LAYER_01
  6
CONTINUOUS
 10
174.1271225571384
 20
495.9483743861219
 30
0.0
 40
2.000000000000341
 50
286.6015495990431
 51
0.0
  0
LINE
  5
13E
  8
LAYER_01
  6
CONTINUOUS
 10
176.1271225571388
 20
495.9483743861219
 30
0.0
 11
176.127122557139
 21
500.5319665211218
 31
0.0
  0
ARC
  5
13F
  8
LAYER_01
  6
CONTINUOUS
 10
174.1271225571384
 20
500.5319665211218
 30
0.0
 40
2.00000000000054
 50
0.0
 51
73.39845040095877
  0
ARC
  5
140
  8
LAYER_01
  6
CONTINUOUS
 10
176.1271225571388
 20
507.2401704536221
 30
0.0
 40
5.000000000000289
 50
16.60154959900862
 51
253.3984504009873
  0
ARC
  5
141
  8
LAYER_01
  6
CONTINUOUS
 10
182.8353264896388
 20
509.2401704536223
 30
0.0
 40
2.000000000000512
 50
196.6015495990494
 51
270.0
  0
LINE
  5
142
  8
LAYER_01
  6
CONTINUOUS
 10
182.8353264896388
 20
507.2401704536218
 30
0.0
 11
189.4189186246388
 21
507.2401704536218
 31
0.0
  0
ARC
  5
143
  8
LAYER_01
  6
CONTINUOUS
 10
189.4189186246388
 20
509.2401704536223
 30
0.0
 40
2.000000000000455
 50
270.0
 51
343.3984504009534
  0
ARC
  5
144
  8
LAYER_01
  6
CONTINUOUS
 10
196.1271225571388
 20
507.2401704536222
 30
0.0
 40
5.000000000000425
 50
286.6015495990105
 51
163.3984504009912
  0
ARC
  5
145
  8
LAYER_01
  6
CONTINUOUS
 10
198.1271225571392
 20
500.5319665211218
 30
0.0
 40
2.000000000000597
 50
106.6015495990467
 51
180.0
  0
LINE
  5
146
  8
LAYER_01
  6
CONTINUOUS
 10
196.1271225571386
 20
500.5319665211218
 30
0.0
 11
196.1271225571388
 21
495.9483743861219
 31
0.0
  0
ARC
  5
147
  8
LAYER_01
  6
CONTINUOUS
 10
198.1271225571392
 20
495.9483743861219
 30
0.0
 40
2.000000000000369
 50
180.0
 51
253.3984504009561
  0
ARC
  5
148
  8
LAYER_01
  6
CONTINUOUS
 10
196.1271225571388
 20
489.2401704536218
 30
0.0
 40
5.000000000000351
 50
196.6015495990104
 51
73.39845040098723
  0
ARC
  5
149
  8
LAYER_01
  6
CONTINUOUS
 10
189.4189186246388
 20
487.2401704536217
 30
0.0
 40
2.000000000000227
 50
16.6015495990399
 51
90.0
  0
LINE
  5
14A
  8
LAYER_01
  6
CONTINUOUS
 10
189.4189186246388
 20
489.2401704536219
 30
0.0
 11
182.8353264896388
 21
489.2401704536218
 31
0.0
  0
ARC
  5
14B
  8
LAYER_01
  6
CONTINUOUS
 10
182.8353264896388
 20
487.2401704536214
 30
0.0
 40
2.000000000000398
 50
90.0
 51
163.398450400953
  0
ARC
  5
14C
  8
LAYER_01
  6
CONTINUOUS
 10
176.1271225571386
 20
489.2401704536217
 30
0.0
 40
5.000000000000496
 50
106.6015495990095
 51
343.3984504009908
  0
ARC
  5
14D
  8
LAYER_01
  6
CONTINUOUS
 10
313.1271225570384
 20
495.9483743861219
 30
0.0
 40
2.000000000000341
 50
286.6015495990459
 51
0.0
  0
LINE
  5
14E
  8
LAYER_01
  6
CONTINUOUS
 10
315.1271225570387
 20
495.9483743861219
 30
0.0
 11
315.1271225570389
 21
500.5319665211218
 31
0.0
  0
ARC
  5
14F
  8
LAYER_01
  6
CONTINUOUS
 10
313.1271225570386
 20
500.5319665211217
 30
0.0
 40
2.000000000000284
 50
0.0000000000016284
 51
73.39845040095722
  0
ARC
  5
150
  8
LAYER_01
  6
CONTINUOUS
 10
315.1271225570389
 20
507.2401704536215
 30
0.0
 40
5.00000000000025
 50
16.60154959901614
 51
253.3984504009866
  0
ARC
  5
151
  8
LAYER_01
  6
CONTINUOUS
 10
321.8353264895387
 20
509.2401704536221
 30
0.0
 40
2.000000000000171
 50
196.6015495990422
 51
270.0
  0
LINE
  5
152
  8
LAYER_01
  6
CONTINUOUS
 10
321.8353264895387
 20
507.2401704536219
 30
0.0
 11
328.4189186245388
 21
507.2401704536217
 31
0.0
  0
ARC
  5
153
  8
LAYER_01
  6
CONTINUOUS
 10
328.4189186245388
 20
509.2401704536223
 30
0.0
 40
2.000000000000625
 50
270.0
 51
343.3984504009518
  0
ARC
  5
154
  8
LAYER_01
  6
CONTINUOUS
 10
335.1271225570392
 20
507.2401704536222
 30
0.0
 40
5.00000000000054
 50
286.6015495990064
 51
163.3984504009937
  0
ARC
  5
155
  8
LAYER_01
  6
CONTINUOUS
 10
337.1271225570393
 20
500.5319665211218
 30
0.0
 40
2.000000000000568
 50
106.6015495990472
 51
180.0
  0
LINE
  5
156
  8
LAYER_01
  6
CONTINUOUS
 10
335.1271225570387
 20
500.5319665211218
 30
0.0
 11
335.1271225570388
 21
495.9483743861219
 31
0.0
  0
ARC
  5
157
  8
LAYER_01
  6
CONTINUOUS
 10
337.1271225570393
 20
495.9483743861219
 30
0.0
 40
2.000000000000512
 50
180.0000000000016
 51
253.3984504009555
  0
ARC
  5
158
  8
LAYER_01
  6
CONTINUOUS
 10
335.1271225570389
 20
489.2401704536218
 30
0.0
 40
5.000000000000218
 50
196.6015495990128
 51
73.3984504009878
  0
ARC
  5
159
  8
LAYER_01
  6
CONTINUOUS
 10
328.4189186245389
 20
487.2401704536213
 30
0.0
 40
2.000000000000512
 50
16.60154959904607
 51
90.0
  0
LINE
  5
15A
  8
LAYER_01
  6
CONTINUOUS
 10
328.4189186245389
 20
489.2401704536218
 30
0.0
 11
321.8353264895388
 21
489.2401704536219
 31
0.0
  0
ARC
  5
15B
  8
LAYER_01
  6
CONTINUOUS
 10
321.8353264895388
 20
487.2401704536217
 30
0.0
 40
2.000000000000227
 50
90.0
 51
163.3984504009583
  0
ARC
  5
15C
  8
LAYER_01
  6
CONTINUOUS
 10
315.1271225570387
 20
489.2401704536218
 30
0.0
 40
5.000000000000261
 50
106.6015495990114
 51
343.3984504009907
  0
ARC
  5
15D
  8
LAYER_01
  6
CONTINUOUS
 10
280.4566711723382
 20
1044.096086702722
 30
0.0
 40
2.000000000000568
 50
286.6015495990447
 51
359.9999999999935
  0
LINE
  5
15E
  8
LAYER_01
  6
CONTINUOUS
 10
282.4566711723388
 20
1044.096086702722
 30
0.0
 11
282.4566711723388
 21
1048.679678838022
 31
0.0
  0
ARC
  5
15F
  8
LAYER_01
  6
CONTINUOUS
 10
280.4566711723388
 20
1048.679678838022
 30
0.0
 40
2.0
 50
0.0
 51
73.3984504009672
  0
ARC
  5
160
  8
LAYER_01
  6
CONTINUOUS
 10
282.4566711723381
 20
1055.387882770522
 30
0.0
 40
5.0000000000006
 50
16.60154959900598
 51
253.3984504009959
  0
ARC
  5
161
  8
LAYER_01
  6
CONTINUOUS
 10
289.1648751048388
 20
1057.387882770522
 30
0.0
 40
2.000000000000455
 50
196.6015495990398
 51
270.0
  0
LINE
  5
162
  8
LAYER_01
  6
CONTINUOUS
 10
289.1648751048388
 20
1055.387882770522
 30
0.0
 11
335.7484672398388
 21
1055.387882770522
 31
0.0
  0
ARC
  5
163
  8
LAYER_01
  6
CONTINUOUS
 10
335.7484672398388
 20
1057.387882770522
 30
0.0
 40
2.000000000000455
 50
270.0
 51
343.3984504009601
  0
ARC
  5
164
  8
LAYER_01
  6
CONTINUOUS
 10
342.4566711723395
 20
1055.387882770523
 30
0.0
 40
5.000000000000921
 50
286.6015495990046
 51
163.398450400995
  0
ARC
  5
165
  8
LAYER_01
  6
CONTINUOUS
 10
344.4566711723389
 20
1048.679678838022
 30
0.0
 40
2.000000000000171
 50
106.6015495990359
 51
180.0
  0
LINE
  5
166
  8
LAYER_01
  6
CONTINUOUS
 10
342.4566711723388
 20
1048.679678838022
 30
0.0
 11
342.4566711723388
 21
1044.096086702722
 31
0.0
  0
ARC
  5
167
  8
LAYER_01
  6
CONTINUOUS
 10
344.4566711723394
 20
1044.096086702722
 30
0.0
 40
2.000000000000682
 50
180.0
 51
253.3984504009475
  0
ARC
  5
168
  8
LAYER_01
  6
CONTINUOUS
 10
342.4566711723386
 20
1037.387882770222
 30
0.0
 40
4.999999999999925
 50
196.6015495990222
 51
73.39845040098544
  0
ARC
  5
169
  8
LAYER_01
  6
CONTINUOUS
 10
335.7484672398388
 20
1035.387882770221
 30
0.0
 40
2.000000000000227
 50
16.60154959904169
 51
90.0
  0
LINE
  5
16A
  8
LAYER_01
  6
CONTINUOUS
 10
335.7484672398388
 20
1037.387882770221
 30
0.0
 11
289.1648751048388
 21
1037.387882770221
 31
0.0
  0
ARC
  5
16B
  8
LAYER_01
  6
CONTINUOUS
 10
289.1648751048388
 20
1035.387882770221
 30
0.0
 40
2.000000000000455
 50
90.0
 51
163.3984504009602
  0
ARC
  5
16C
  8
LAYER_01
  6
CONTINUOUS
 10
282.4566711723386
 20
1037.387882770221
 30
0.0
 40
5.000000000000409
 50
106.6015495990118
 51
343.398450400985
  0
ARC
  5
16D
  8
LAYER_01
  6
CONTINUOUS
 10
791.3781842212386
 20
760.8116579915219
 30
0.0
 40
2.000000000000341
 50
286.6015495990341
 51
0.0
  0
LINE
  5
16E
  8
LAYER_01
  6
CONTINUOUS
 10
793.3781842212389
 20
760.8116579915219
 30
0.0
 11
793.3781842212388
 21
765.3952501265219
 31
0.0
  0
ARC
  5
16F
  8
LAYER_01
  6
CONTINUOUS
 10
791.3781842212386
 20
765.3952501265219
 30
0.0
 40
2.000000000000227
 50
0.0
 51
73.39845040095878
  0
ARC
  5
170
  8
LAYER_01
  6
CONTINUOUS
 10
793.3781842212387
 20
772.103454059022
 30
0.0
 40
5.000000000000386
 50
16.60154959901084
 51
253.3984504009904
  0
ARC
  5
171
  8
LAYER_01
  6
CONTINUOUS
 10
800.0863881537388
 20
774.1034540590219
 30
0.0
 40
2.000000000000227
 50
196.601549599035
 51
270.0
  0
LINE
  5
172
  8
LAYER_01
  6
CONTINUOUS
 10
800.0863881537388
 20
772.1034540590217
 30
0.0
 11
806.6699802887388
 21
772.1034540590218
 31
0.0
  0
ARC
  5
173
  8
LAYER_01
  6
CONTINUOUS
 10
806.6699802887388
 20
774.1034540590223
 30
0.0
 40
2.000000000000455
 50
270.0
 51
343.3984504009534
  0
ARC
  5
174
  8
LAYER_01
  6
CONTINUOUS
 10
813.3781842212386
 20
772.1034540590217
 30
0.0
 40
5.000000000000157
 50
286.6015495990156
 51
163.3984504009856
  0
ARC
  5
175
  8
LAYER_01
  6
CONTINUOUS
 10
815.378184221239
 20
765.3952501265219
 30
0.0
 40
2.000000000000227
 50
106.6015495990381
 51
180.0
  0
LINE
  5
176
  8
LAYER_01
  6
CONTINUOUS
 10
813.3781842212388
 20
765.3952501265219
 30
0.0
 11
813.3781842212388
 21
760.8116579915218
 31
0.0
  0
ARC
  5
177
  8
LAYER_01
  6
CONTINUOUS
 10
815.3781842212389
 20
760.8116579915218
 30
0.0
 40
2.000000000000114
 50
180.0
 51
253.3984504009641
  0
ARC
  5
178
  8
LAYER_01
  6
CONTINUOUS
 10
813.3781842212393
 20
754.1034540590215
 30
0.0
 40
5.000000000000354
 50
196.6015495990067
 51
73.39845040099165
  0
ARC
  5
179
  8
LAYER_01
  6
CONTINUOUS
 10
806.6699802887388
 20
752.1034540590211
 30
0.0
 40
2.000000000000796
 50
16.60154959905404
 51
90.0
  0
LINE
  5
17A
  8
LAYER_01
  6
CONTINUOUS
 10
806.6699802887388
 20
754.1034540590219
 30
0.0
 11
800.0863881537388
 21
754.1034540590219
 31
0.0
  0
ARC
  5
17B
  8
LAYER_01
  6
CONTINUOUS
 10
800.0863881537388
 20
752.1034540590216
 30
0.0
 40
2.000000000000341
 50
90.0
 51
163.3984504009628
  0
ARC
  5
17C
  8
LAYER_01
  6
CONTINUOUS
 10
793.3781842212384
 20
754.1034540590215
 30
0.0
 40
5.000000000000605
 50
106.6015495990088
 51
343.3984504009911
  0
ARC
  5
17D
  8
0
  6
CONTINUOUS
 10
721.0484493151398
 20
288.2500323423222
 30
0.0
 40
44.61306618937014
 50
291.6891956919986
 51
111.8664454966014
  0
LINE
  5
17E
  8
0
  6
CONTINUOUS
 10
704.4325651528832
 20
329.6533905192091
 30
0.0
 11
694.1319065331053
 21
400.2414733857486
 31
0.0
  0
LINE
  5
17F
  8
0
  6
CONTINUOUS
 10
694.1319065331053
 20
400.2414733857486
 30
0.0
 11
690.1340143917594
 21
434.4915390700994
 31
0.0
  0
LINE
  5
180
  8
0
  6
CONTINUOUS
 10
690.1340143917594
 20
434.4915390700994
 30
0.0
 11
686.8586646555478
 21
468.0141598672358
 31
0.0
  0
LINE
  5
181
  8
0
  6
CONTINUOUS
 10
686.8586646555478
 20
468.0141598672358
 30
0.0
 11
684.2715474008148
 21
500.78576214021
 31
0.0
  0
LINE
  5
182
  8
0
  6
CONTINUOUS
 10
684.2715474008148
 20
500.78576214021
 30
0.0
 11
682.3673354624323
 21
532.2183311671768
 31
0.0
  0
LINE
  5
183
  8
0
  6
CONTINUOUS
 10
682.3673354624323
 20
532.2183311671768
 30
0.0
 11
681.0613939701121
 21
562.881378153071
 31
0.0
  0
LINE
  5
184
  8
0
  6
CONTINUOUS
 10
681.0613939701121
 20
562.881378153071
 30
0.0
 11
680.321212315422
 21
592.7525643945064
 31
0.0
  0
LINE
  5
185
  8
0
  6
CONTINUOUS
 10
680.321212315422
 20
592.7525643945064
 30
0.0
 11
680.1142873405032
 21
621.8095488055576
 31
0.0
  0
LINE
  5
186
  8
0
  6
CONTINUOUS
 10
680.1142873405032
 20
621.8095488055576
 30
0.0
 11
680.4190943180137
 21
650.5970504821139
 31
0.0
  0
LINE
  5
187
  8
0
  6
CONTINUOUS
 10
680.4190943180137
 20
650.5970504821139
 30
0.0
 11
681.21076320992
 21
678.4897760242843
 31
0.0
  0
LINE
  5
188
  8
0
  6
CONTINUOUS
 10
681.21076320992
 20
678.4897760242843
 30
0.0
 11
682.4547568498668
 21
705.4639921278592
 31
0.0
  0
LINE
  5
189
  8
0
  6
CONTINUOUS
 10
682.4547568498668
 20
705.4639921278592
 30
0.0
 11
684.1165380714955
 21
731.4959631056461
 31
0.0
  0
LINE
  5
18A
  8
0
  6
CONTINUOUS
 10
684.1165380714955
 20
731.4959631056461
 30
0.0
 11
686.1615659831563
 21
756.5619588584289
 31
0.0
  0
LINE
  5
18B
  8
0
  6
CONTINUOUS
 10
686.1615659831563
 20
756.5619588584289
 30
0.0
 11
688.5553108690798
 21
780.6382269353476
 31
0.0
  0
LINE
  5
18C
  8
0
  6
CONTINUOUS
 10
688.5553108690798
 20
780.6382269353476
 30
0.0
 11
691.2632281123181
 21
803.7010223359334
 31
0.0
  0
LINE
  5
18D
  8
0
  6
CONTINUOUS
 10
691.2632281123181
 20
803.7010223359334
 30
0.0
 11
694.2507842718188
 21
825.7266373128509
 31
0.0
  0
LINE
  5
18E
  8
0
  6
CONTINUOUS
 10
694.2507842718188
 20
825.7266373128509
 30
0.0
 11
697.4834459065012
 21
846.6913343162068
 31
0.0
  0
LINE
  5
18F
  8
0
  6
CONTINUOUS
 10
697.4834459065012
 20
846.6913343162068
 30
0.0
 11
700.9266683994391
 21
866.5713459939748
 31
0.0
  0
LINE
  5
190
  8
0
  6
CONTINUOUS
 10
700.9266683994391
 20
866.5713459939748
 30
0.0
 11
704.5459183095478
 21
885.3429496974329
 31
0.0
  0
LINE
  5
191
  8
0
  6
CONTINUOUS
 10
704.5459183095478
 20
885.3429496974329
 30
0.0
 11
708.3066621957843
 21
902.9824078769273
 31
0.0
  0
LINE
  5
192
  8
0
  6
CONTINUOUS
 10
708.3066621957843
 20
902.9824078769273
 30
0.0
 11
712.1743591664784
 21
919.466012784887
 31
0.0
  0
LINE
  5
193
  8
0
  6
CONTINUOUS
 10
712.1743591664784
 20
919.466012784887
 30
0.0
 11
716.1144720552945
 21
934.7699821681397
 31
0.0
  0
LINE
  5
194
  8
0
  6
CONTINUOUS
 10
716.1144720552945
 20
934.7699821681397
 30
0.0
 11
719.7603596537033
 21
947.7420986385241
 31
0.0
  0
LINE
  5
195
  8
0
  6
CONTINUOUS
 10
719.7603596537033
 20
947.7420986385241
 30
0.0
 11
723.411476628337
 21
959.6847832888859
 31
0.0
  0
LINE
  5
196
  8
0
  6
CONTINUOUS
 10
723.411476628337
 20
959.6847832888859
 30
0.0
 11
727.041217887272
 21
970.5797374934918
 31
0.0
  0
LINE
  5
197
  8
0
  6
CONTINUOUS
 10
727.041217887272
 20
970.5797374934918
 30
0.0
 11
730.6229820637409
 21
980.4086924285136
 31
0.0
  0
LINE
  5
198
  8
0
  6
CONTINUOUS
 10
730.6229820637409
 20
980.4086924285136
 30
0.0
 11
732.3332427702532
 21
984.7987681142979
 31
0.0
  0
LINE
  5
199
  8
0
  6
CONTINUOUS
 10
732.3332427702532
 20
984.7987681142979
 30
0.0
 11
734.1301666269684
 21
989.1533494682124
 31
0.0
  0
LINE
  5
19A
  8
0
  6
CONTINUOUS
 10
734.1301666269684
 20
989.1533494682124
 30
0.0
 11
737.5361690460257
 21
996.7954695910939
 31
0.0
  0
LINE
  5
19B
  8
0
  6
CONTINUOUS
 10
737.5361690460257
 20
996.7954695910939
 30
0.0
 11
783.3643050791812
 21
1066.940738002811
 31
0.0
  0
LINE
  5
19C
  8
0
  6
CONTINUOUS
 10
783.3643050791812
 20
1066.940738002811
 30
0.0
 11
802.638549253206
 21
1094.474153293702
 31
0.0
  0
LINE
  5
19D
  8
0
  6
CONTINUOUS
 10
802.638549253206
 20
1094.474153293702
 30
0.0
 11
806.4852059528374
 21
1100.126449819177
 31
0.0
  0
LINE
  5
19E
  8
0
  6
CONTINUOUS
 10
806.4852059528374
 20
1100.126449819177
 30
0.0
 11
808.3259418464851
 21
1103.013317321037
 31
0.0
  0
LINE
  5
19F
  8
0
  6
CONTINUOUS
 10
808.3259418464851
 20
1103.013317321037
 30
0.0
 11
810.0809809630208
 21
1105.945489146829
 31
0.0
  0
LINE
  5
1A0
  8
0
  6
CONTINUOUS
 10
810.0809809630208
 20
1105.945489146829
 30
0.0
 11
810.9191841190121
 21
1107.429695001008
 31
0.0
  0
LINE
  5
1A1
  8
0
  6
CONTINUOUS
 10
810.9191841190121
 20
1107.429695001008
 30
0.0
 11
811.7273469476944
 21
1108.926583919939
 31
0.0
  0
LINE
  5
1A2
  8
0
  6
CONTINUOUS
 10
811.7273469476944
 20
1108.926583919939
 30
0.0
 11
812.5025974047236
 21
1110.436608231547
 31
0.0
  0
LINE
  5
1A3
  8
0
  6
CONTINUOUS
 10
812.5025974047236
 20
1110.436608231547
 30
0.0
 11
813.2420634457559
 21
1111.960220263755
 31
0.0
  0
LINE
  5
1A4
  8
0
  6
CONTINUOUS
 10
813.2420634457559
 20
1111.960220263755
 30
0.0
 11
813.9428730264477
 21
1113.497872344487
 31
0.0
  0
LINE
  5
1A5
  8
0
  6
CONTINUOUS
 10
813.9428730264477
 20
1113.497872344487
 30
0.0
 11
814.6021541024553
 21
1115.050016801665
 31
0.0
  0
LINE
  5
1A6
  8
0
  6
CONTINUOUS
 10
814.6021541024553
 20
1115.050016801665
 30
0.0
 11
815.2170346294347
 21
1116.617105963213
 31
0.0
  0
LINE
  5
1A7
  8
0
  6
CONTINUOUS
 10
815.2170346294347
 20
1116.617105963213
 30
0.0
 11
815.7846425630424
 21
1118.199592157054
 31
0.0
  0
LINE
  5
1A8
  8
0
  6
CONTINUOUS
 10
815.7846425630424
 20
1118.199592157054
 30
0.0
 11
816.3021058589346
 21
1119.797927711113
 31
0.0
  0
LINE
  5
1A9
  8
0
  6
CONTINUOUS
 10
816.3021058589346
 20
1119.797927711113
 30
0.0
 11
816.7665524727676
 21
1121.412564953312
 31
0.0
  0
LINE
  5
1AA
  8
0
  6
CONTINUOUS
 10
816.7665524727676
 20
1121.412564953312
 30
0.0
 11
816.9779970100543
 21
1122.22613805994
 31
0.0
  0
LINE
  5
1AB
  8
0
  6
CONTINUOUS
 10
816.9779970100543
 20
1122.22613805994
 30
0.0
 11
817.1751103601974
 21
1123.043956211574
 31
0.0
  0
LINE
  5
1AC
  8
0
  6
CONTINUOUS
 10
817.1751103601974
 20
1123.043956211574
 30
0.0
 11
817.3575335176537
 21
1123.866075949205
 31
0.0
  0
LINE
  5
1AD
  8
0
  6
CONTINUOUS
 10
817.3575335176537
 20
1123.866075949205
 30
0.0
 11
817.5249074768803
 21
1124.692553813823
 31
0.0
  0
LINE
  5
1AE
  8
0
  6
CONTINUOUS
 10
817.5249074768803
 20
1124.692553813823
 30
0.0
 11
817.6768732323344
 21
1125.523446346419
 31
0.0
  0
LINE
  5
1AF
  8
0
  6
CONTINUOUS
 10
817.6768732323344
 20
1125.523446346419
 30
0.0
 11
817.8130717784728
 21
1126.358810087984
 31
0.0
  0
LINE
  5
1B0
  8
0
  6
CONTINUOUS
 10
817.8130717784728
 20
1126.358810087984
 30
0.0
 11
817.9331441097528
 21
1127.198701579506
 31
0.0
  0
LINE
  5
1B1
  8
0
  6
CONTINUOUS
 10
817.9331441097528
 20
1127.198701579506
 30
0.0
 11
818.0367312206309
 21
1128.043177361978
 31
0.0
  0
LINE
  5
1B2
  8
0
  6
CONTINUOUS
 10
818.0367312206309
 20
1128.043177361978
 30
0.0
 11
818.1234741055647
 21
1128.892293976388
 31
0.0
  0
LINE
  5
1B3
  8
0
  6
CONTINUOUS
 10
818.1234741055647
 20
1128.892293976388
 30
0.0
 11
818.1930137590109
 21
1129.746107963729
 31
0.0
  0
LINE
  5
1B4
  8
0
  6
CONTINUOUS
 10
818.1930137590109
 20
1129.746107963729
 30
0.0
 11
818.2449911754268
 21
1130.604675864989
 31
0.0
  0
LINE
  5
1B5
  8
0
  6
CONTINUOUS
 10
818.2449911754268
 20
1130.604675864989
 30
0.0
 11
818.2790473492691
 21
1131.468054221161
 31
0.0
  0
LINE
  5
1B6
  8
0
  6
CONTINUOUS
 10
818.2790473492691
 20
1131.468054221161
 30
0.0
 11
818.2948232749951
 21
1132.336299573233
 31
0.0
  0
LINE
  5
1B7
  8
0
  6
CONTINUOUS
 10
818.2948232749951
 20
1132.336299573233
 30
0.0
 11
818.2919599470619
 21
1133.209468462197
 31
0.0
  0
LINE
  5
1B8
  8
0
  6
CONTINUOUS
 10
818.2919599470619
 20
1133.209468462197
 30
0.0
 11
818.2700983599262
 21
1134.087617429042
 31
0.0
  0
LINE
  5
1B9
  8
0
  6
CONTINUOUS
 10
818.2700983599262
 20
1134.087617429042
 30
0.0
 11
818.2288795080452
 21
1134.97080301476
 31
0.0
  0
LINE
  5
1BA
  8
0
  6
CONTINUOUS
 10
818.2288795080452
 20
1134.97080301476
 30
0.0
 11
818.167944385876
 21
1135.859081760341
 31
0.0
  0
LINE
  5
1BB
  8
0
  6
CONTINUOUS
 10
818.167944385876
 20
1135.859081760341
 30
0.0
 11
818.0869339878756
 21
1136.752510206775
 31
0.0
  0
LINE
  5
1BC
  8
0
  6
CONTINUOUS
 10
818.0869339878756
 20
1136.752510206775
 30
0.0
 11
817.9854893085007
 21
1137.651144895052
 31
0.0
  0
LINE
  5
1BD
  8
0
  6
CONTINUOUS
 10
817.9854893085007
 20
1137.651144895052
 30
0.0
 11
817.8632513422089
 21
1138.555042366164
 31
0.0
  0
ARC
  5
1BE
  8
0
  6
CONTINUOUS
 10
752.3361757562387
 20
1119.162340711922
 30
0.0
 40
68.33648009884521
 50
16.48609042570004
 51
196.4860904258001
  0
LINE
  5
1BF
  8
0
  6
CONTINUOUS
 10
686.8091001703025
 20
1099.769639057566
 30
0.0
 11
687.0199143552362
 21
1099.486919948193
 31
0.0
  0
LINE
  5
1C0
  8
0
  6
CONTINUOUS
 10
687.0199143552362
 20
1099.486919948193
 30
0.0
 11
687.2231815901205
 21
1099.203959898711
 31
0.0
  0
LINE
  5
1C1
  8
0
  6
CONTINUOUS
 10
687.2231815901205
 20
1099.203959898711
 30
0.0
 11
687.4189775302672
 21
1098.920759115617
 31
0.0
  0
LINE
  5
1C2
  8
0
  6
CONTINUOUS
 10
687.4189775302672
 20
1098.920759115617
 30
0.0
 11
687.6073778309888
 21
1098.637317805407
 31
0.0
  0
LINE
  5
1C3
  8
0
  6
CONTINUOUS
 10
687.6073778309888
 20
1098.637317805407
 30
0.0
 11
687.788458147597
 21
1098.353636174579
 31
0.0
  0
LINE
  5
1C4
  8
0
  6
CONTINUOUS
 10
687.788458147597
 20
1098.353636174579
 30
0.0
 11
687.9622941354038
 21
1098.069714429629
 31
0.0
  0
LINE
  5
1C5
  8
0
  6
CONTINUOUS
 10
687.9622941354038
 20
1098.069714429629
 30
0.0
 11
688.1289614497215
 21
1097.785552777054
 31
0.0
  0
LINE
  5
1C6
  8
0
  6
CONTINUOUS
 10
688.1289614497215
 20
1097.785552777054
 30
0.0
 11
688.2885357458622
 21
1097.501151423351
 31
0.0
  0
LINE
  5
1C7
  8
0
  6
CONTINUOUS
 10
688.2885357458622
 20
1097.501151423351
 30
0.0
 11
688.4410926791378
 21
1097.216510575016
 31
0.0
  0
LINE
  5
1C8
  8
0
  6
CONTINUOUS
 10
688.4410926791378
 20
1097.216510575016
 30
0.0
 11
688.5867079048605
 21
1096.931630438547
 31
0.0
  0
LINE
  5
1C9
  8
0
  6
CONTINUOUS
 10
688.5867079048605
 20
1096.931630438547
 30
0.0
 11
688.7254570783424
 21
1096.646511220439
 31
0.0
  0
LINE
  5
1CA
  8
0
  6
CONTINUOUS
 10
688.7254570783424
 20
1096.646511220439
 30
0.0
 11
688.8574158548955
 21
1096.36115312719
 31
0.0
  0
LINE
  5
1CB
  8
0
  6
CONTINUOUS
 10
688.8574158548955
 20
1096.36115312719
 30
0.0
 11
688.9826598898319
 21
1096.075556365297
 31
0.0
  0
LINE
  5
1CC
  8
0
  6
CONTINUOUS
 10
688.9826598898319
 20
1096.075556365297
 30
0.0
 11
689.1012648384636
 21
1095.789721141256
 31
0.0
  0
LINE
  5
1CD
  8
0
  6
CONTINUOUS
 10
689.1012648384636
 20
1095.789721141256
 30
0.0
 11
689.2133063561029
 21
1095.503647661565
 31
0.0
  0
LINE
  5
1CE
  8
0
  6
CONTINUOUS
 10
689.2133063561029
 20
1095.503647661565
 30
0.0
 11
689.3188600980615
 21
1095.217336132719
 31
0.0
  0
LINE
  5
1CF
  8
0
  6
CONTINUOUS
 10
689.3188600980615
 20
1095.217336132719
 30
0.0
 11
689.4180017196518
 21
1094.930786761216
 31
0.0
  0
LINE
  5
1D0
  8
0
  6
CONTINUOUS
 10
689.4180017196518
 20
1094.930786761216
 30
0.0
 11
689.5108068761858
 21
1094.643999753552
 31
0.0
  0
LINE
  5
1D1
  8
0
  6
CONTINUOUS
 10
689.5108068761858
 20
1094.643999753552
 30
0.0
 11
689.5973512229756
 21
1094.356975316225
 31
0.0
  0
LINE
  5
1D2
  8
0
  6
CONTINUOUS
 10
689.5973512229756
 20
1094.356975316225
 30
0.0
 11
689.677710415333
 21
1094.06971365573
 31
0.0
  0
LINE
  5
1D3
  8
0
  6
CONTINUOUS
 10
689.677710415333
 20
1094.06971365573
 30
0.0
 11
689.7519601085704
 21
1093.782214978565
 31
0.0
  0
LINE
  5
1D4
  8
0
  6
CONTINUOUS
 10
689.7519601085704
 20
1093.782214978565
 30
0.0
 11
689.8201759579998
 21
1093.494479491227
 31
0.0
  0
LINE
  5
1D5
  8
0
  6
CONTINUOUS
 10
689.8201759579998
 20
1093.494479491227
 30
0.0
 11
689.8824336189333
 21
1093.206507400212
 31
0.0
  0
LINE
  5
1D6
  8
0
  6
CONTINUOUS
 10
689.8824336189333
 20
1093.206507400212
 30
0.0
 11
689.9388087466828
 21
1092.918298912017
 31
0.0
  0
LINE
  5
1D7
  8
0
  6
CONTINUOUS
 10
689.9388087466828
 20
1092.918298912017
 30
0.0
 11
689.9893769965605
 21
1092.629854233139
 31
0.0
  0
LINE
  5
1D8
  8
0
  6
CONTINUOUS
 10
689.9893769965605
 20
1092.629854233139
 30
0.0
 11
690.0342140238785
 21
1092.341173570074
 31
0.0
  0
LINE
  5
1D9
  8
0
  6
CONTINUOUS
 10
690.0342140238785
 20
1092.341173570074
 30
0.0
 11
690.0733954839488
 21
1092.05225712932
 31
0.0
  0
LINE
  5
1DA
  8
0
  6
CONTINUOUS
 10
690.0733954839488
 20
1092.05225712932
 30
0.0
 11
690.1069970320837
 21
1091.763105117373
 31
0.0
  0
LINE
  5
1DB
  8
0
  6
CONTINUOUS
 10
690.1069970320837
 20
1091.763105117373
 30
0.0
 11
690.1350943235949
 21
1091.47371774073
 31
0.0
  0
LINE
  5
1DC
  8
0
  6
CONTINUOUS
 10
690.1350943235949
 20
1091.47371774073
 30
0.0
 11
690.1577630137947
 21
1091.184095205887
 31
0.0
  0
LINE
  5
1DD
  8
0
  6
CONTINUOUS
 10
690.1577630137947
 20
1091.184095205887
 30
0.0
 11
690.1750787579952
 21
1090.894237719342
 31
0.0
  0
LINE
  5
1DE
  8
0
  6
CONTINUOUS
 10
690.1750787579952
 20
1090.894237719342
 30
0.0
 11
690.1871172115083
 21
1090.604145487591
 31
0.0
  0
LINE
  5
1DF
  8
0
  6
CONTINUOUS
 10
690.1871172115083
 20
1090.604145487591
 30
0.0
 11
690.1939540296463
 21
1090.313818717131
 31
0.0
  0
LINE
  5
1E0
  8
0
  6
CONTINUOUS
 10
690.1939540296463
 20
1090.313818717131
 30
0.0
 11
690.1956648677211
 21
1090.023257614459
 31
0.0
  0
LINE
  5
1E1
  8
0
  6
CONTINUOUS
 10
690.1956648677211
 20
1090.023257614459
 30
0.0
 11
690.1840112249298
 21
1089.441433238465
 31
0.0
  0
LINE
  5
1E2
  8
0
  6
CONTINUOUS
 10
690.1840112249298
 20
1089.441433238465
 30
0.0
 11
690.1527615256308
 21
1088.858674011583
 31
0.0
  0
LINE
  5
1E3
  8
0
  6
CONTINUOUS
 10
690.1527615256308
 20
1088.858674011583
 30
0.0
 11
690.1025210123207
 21
1088.274981585788
 31
0.0
  0
LINE
  5
1E4
  8
0
  6
CONTINUOUS
 10
690.1025210123207
 20
1088.274981585788
 30
0.0
 11
690.0338949274962
 21
1087.690357613053
 31
0.0
  0
LINE
  5
1E5
  8
0
  6
CONTINUOUS
 10
690.0338949274962
 20
1087.690357613053
 30
0.0
 11
689.9474885136541
 21
1087.104803745353
 31
0.0
  0
LINE
  5
1E6
  8
0
  6
CONTINUOUS
 10
689.9474885136541
 20
1087.104803745353
 30
0.0
 11
689.8439070132905
 21
1086.518321634662
 31
0.0
  0
LINE
  5
1E7
  8
0
  6
CONTINUOUS
 10
689.8439070132905
 20
1086.518321634662
 30
0.0
 11
689.7237556689025
 21
1085.930912932953
 31
0.0
  0
LINE
  5
1E8
  8
0
  6
CONTINUOUS
 10
689.7237556689025
 20
1085.930912932953
 30
0.0
 11
689.5876397229865
 21
1085.342579292202
 31
0.0
  0
LINE
  5
1E9
  8
0
  6
CONTINUOUS
 10
689.5876397229865
 20
1085.342579292202
 30
0.0
 11
689.436164418039
 21
1084.753322364383
 31
0.0
  0
LINE
  5
1EA
  8
0
  6
CONTINUOUS
 10
689.436164418039
 20
1084.753322364383
 30
0.0
 11
689.2699349965567
 21
1084.163143801468
 31
0.0
  0
LINE
  5
1EB
  8
0
  6
CONTINUOUS
 10
689.2699349965567
 20
1084.163143801468
 30
0.0
 11
689.0895567010361
 21
1083.572045255434
 31
0.0
  0
LINE
  5
1EC
  8
0
  6
CONTINUOUS
 10
689.0895567010361
 20
1083.572045255434
 30
0.0
 11
688.8956347739739
 21
1082.980028378253
 31
0.0
  0
LINE
  5
1ED
  8
0
  6
CONTINUOUS
 10
688.8956347739739
 20
1082.980028378253
 30
0.0
 11
688.6887744578668
 21
1082.387094821901
 31
0.0
  0
LINE
  5
1EE
  8
0
  6
CONTINUOUS
 10
688.6887744578668
 20
1082.387094821901
 30
0.0
 11
688.2386596285039
 21
1081.198484279576
 31
0.0
  0
LINE
  5
1EF
  8
0
  6
CONTINUOUS
 10
688.2386596285039
 20
1081.198484279576
 30
0.0
 11
687.7440541529202
 21
1080.006226844253
 31
0.0
  0
LINE
  5
1F0
  8
0
  6
CONTINUOUS
 10
687.7440541529202
 20
1080.006226844253
 30
0.0
 11
687.2097999710885
 21
1078.810335731726
 31
0.0
  0
LINE
  5
1F1
  8
0
  6
CONTINUOUS
 10
687.2097999710885
 20
1078.810335731726
 30
0.0
 11
686.6407390229815
 21
1077.610824157787
 31
0.0
  0
LINE
  5
1F2
  8
0
  6
CONTINUOUS
 10
686.6407390229815
 20
1077.610824157787
 30
0.0
 11
686.0417132485721
 21
1076.40770533823
 31
0.0
  0
LINE
  5
1F3
  8
0
  6
CONTINUOUS
 10
686.0417132485721
 20
1076.40770533823
 30
0.0
 11
680.7518061031477
 21
1066.654479834715
 31
0.0
  0
LINE
  5
1F4
  8
0
  6
CONTINUOUS
 10
680.7518061031477
 20
1066.654479834715
 30
0.0
 11
679.468616851864
 21
1064.181026108185
 31
0.0
  0
LINE
  5
1F5
  8
0
  6
CONTINUOUS
 10
679.468616851864
 20
1064.181026108185
 30
0.0
 11
678.8595460263335
 21
1062.939099829186
 31
0.0
  0
LINE
  5
1F6
  8
0
  6
CONTINUOUS
 10
678.8595460263335
 20
1062.939099829186
 30
0.0
 11
678.2786136541744
 21
1061.693724894088
 31
0.0
  0
LINE
  5
1F7
  8
0
  6
CONTINUOUS
 10
678.2786136541744
 20
1061.693724894088
 30
0.0
 11
677.5689328716873
 21
1060.066575831645
 31
0.0
  0
LINE
  5
1F8
  8
0
  6
CONTINUOUS
 10
677.5689328716873
 20
1060.066575831645
 30
0.0
 11
676.9083576020168
 21
1058.438127658622
 31
0.0
  0
LINE
  5
1F9
  8
0
  6
CONTINUOUS
 10
676.9083576020168
 20
1058.438127658622
 30
0.0
 11
676.2899973196205
 21
1056.812914155668
 31
0.0
  0
LINE
  5
1FA
  8
0
  6
CONTINUOUS
 10
676.2899973196205
 20
1056.812914155668
 30
0.0
 11
672.5646908409241
 21
1045.907827971521
 31
0.0
  0
LINE
  5
1FB
  8
0
  6
CONTINUOUS
 10
672.5646908409241
 20
1045.907827971521
 30
0.0
 11
672.0359915371794
 21
1044.471707932518
 31
0.0
  0
LINE
  5
1FC
  8
0
  6
CONTINUOUS
 10
672.0359915371794
 20
1044.471707932518
 30
0.0
 11
671.4874924908235
 21
1043.079626589434
 31
0.0
  0
LINE
  5
1FD
  8
0
  6
CONTINUOUS
 10
671.4874924908235
 20
1043.079626589434
 30
0.0
 11
670.9123031763137
 21
1041.736117722918
 31
0.0
  0
LINE
  5
1FE
  8
0
  6
CONTINUOUS
 10
670.9123031763137
 20
1041.736117722918
 30
0.0
 11
670.612546379269
 21
1041.083994774826
 31
0.0
  0
LINE
  5
1FF
  8
0
  6
CONTINUOUS
 10
670.612546379269
 20
1041.083994774826
 30
0.0
 11
670.3035330681072
 21
1040.445715113621
 31
0.0
  0
LINE
  5
200
  8
0
  6
CONTINUOUS
 10
670.3035330681072
 20
1040.445715113621
 30
0.0
 11
669.9844019271355
 21
1039.821845461882
 31
0.0
  0
LINE
  5
201
  8
0
  6
CONTINUOUS
 10
669.9844019271355
 20
1039.821845461882
 30
0.0
 11
669.6542916406611
 21
1039.212952542192
 31
0.0
  0
LINE
  5
202
  8
0
  6
CONTINUOUS
 10
669.6542916406611
 20
1039.212952542192
 30
0.0
 11
669.3123408929912
 21
1038.619603077131
 31
0.0
  0
LINE
  5
203
  8
0
  6
CONTINUOUS
 10
669.3123408929912
 20
1038.619603077131
 30
0.0
 11
668.9576883684326
 21
1038.042363789282
 31
0.0
  0
LINE
  5
204
  8
0
  6
CONTINUOUS
 10
668.9576883684326
 20
1038.042363789282
 30
0.0
 11
661.098556858704
 21
1025.331822259566
 31
0.0
  0
LINE
  5
205
  8
0
  6
CONTINUOUS
 10
661.098556858704
 20
1025.331822259566
 30
0.0
 11
653.5969687911538
 21
1012.525806770992
 31
0.0
  0
LINE
  5
206
  8
0
  6
CONTINUOUS
 10
653.5969687911538
 20
1012.525806770992
 30
0.0
 11
646.4499315889923
 21
999.6317675149016
 31
0.0
  0
LINE
  5
207
  8
0
  6
CONTINUOUS
 10
646.4499315889923
 20
999.6317675149016
 30
0.0
 11
639.6506598927305
 21
986.6517408782388
 31
0.0
  0
LINE
  5
208
  8
0
  6
CONTINUOUS
 10
639.6506598927305
 20
986.6517408782388
 30
0.0
 11
633.1971709831442
 21
973.5955951007256
 31
0.0
  0
LINE
  5
209
  8
0
  6
CONTINUOUS
 10
633.1971709831442
 20
973.5955951007256
 30
0.0
 11
627.0845562008943
 21
960.4691637895714
 31
0.0
  0
LINE
  5
20A
  8
0
  6
CONTINUOUS
 10
627.0845562008943
 20
960.4691637895714
 30
0.0
 11
621.3072760446995
 21
947.2775206016954
 31
0.0
  0
LINE
  5
20B
  8
0
  6
CONTINUOUS
 10
621.3072760446995
 20
947.2775206016954
 30
0.0
 11
615.8601935856258
 21
934.0267340253708
 31
0.0
  0
LINE
  5
20C
  8
0
  6
CONTINUOUS
 10
615.8601935856258
 20
934.0267340253708
 30
0.0
 11
610.7381155399024
 21
920.7229868334607
 31
0.0
  0
LINE
  5
20D
  8
0
  6
CONTINUOUS
 10
610.7381155399024
 20
920.7229868334607
 30
0.0
 11
605.9352206319558
 21
907.3719241055505
 31
0.0
  0
LINE
  5
20E
  8
0
  6
CONTINUOUS
 10
605.9352206319558
 20
907.3719241055505
 30
0.0
 11
601.4455305882906
 21
893.9790564979774
 31
0.0
  0
LINE
  5
20F
  8
0
  6
CONTINUOUS
 10
601.4455305882906
 20
893.9790564979774
 30
0.0
 11
597.2630671354121
 21
880.5498946670778
 31
0.0
  0
LINE
  5
210
  8
0
  6
CONTINUOUS
 10
597.2630671354121
 20
880.5498946670778
 30
0.0
 11
593.3817498378189
 21
867.0898302562316
 31
0.0
  0
LINE
  5
211
  8
0
  6
CONTINUOUS
 10
593.3817498378189
 20
867.0898302562316
 30
0.0
 11
589.7950896120653
 21
853.6037788572821
 31
0.0
  0
LINE
  5
212
  8
0
  6
CONTINUOUS
 10
589.7950896120653
 20
853.6037788572821
 30
0.0
 11
586.4964952126974
 21
840.0965370491147
 31
0.0
  0
LINE
  5
213
  8
0
  6
CONTINUOUS
 10
586.4964952126974
 20
840.0965370491147
 30
0.0
 11
583.4793753942607
 21
826.5729014106159
 31
0.0
  0
LINE
  5
214
  8
0
  6
CONTINUOUS
 10
583.4793753942607
 20
826.5729014106159
 30
0.0
 11
580.7370950558892
 21
813.0375323526787
 31
0.0
  0
LINE
  5
215
  8
0
  6
CONTINUOUS
 10
580.7370950558892
 20
813.0375323526787
 30
0.0
 11
578.2628436750673
 21
799.4945456142234
 31
0.0
  0
LINE
  5
216
  8
0
  6
CONTINUOUS
 10
578.2628436750673
 20
799.4945456142234
 30
0.0
 11
576.0497668738672
 21
785.947920766178
 31
0.0
  0
LINE
  5
217
  8
0
  6
CONTINUOUS
 10
576.0497668738672
 20
785.947920766178
 30
0.0
 11
574.0910102743611
 21
772.4016373794702
 31
0.0
  0
LINE
  5
218
  8
0
  6
CONTINUOUS
 10
574.0910102743611
 20
772.4016373794702
 30
0.0
 11
572.3797152099952
 21
758.8595789919023
 31
0.0
  0
LINE
  5
219
  8
0
  6
CONTINUOUS
 10
572.3797152099952
 20
758.8595789919023
 30
0.0
 11
570.90900585971
 21
745.3252450087766
 31
0.0
  0
LINE
  5
21A
  8
0
  6
CONTINUOUS
 10
570.90900585971
 20
745.3252450087766
 30
0.0
 11
568.6618238626405
 21
718.2933637445585
 31
0.0
  0
LINE
  5
21B
  8
0
  6
CONTINUOUS
 10
568.6618238626405
 20
718.2933637445585
 30
0.0
 11
567.2947174961074
 21
691.3320575995899
 31
0.0
  0
LINE
  5
21C
  8
0
  6
CONTINUOUS
 10
567.2947174961074
 20
691.3320575995899
 30
0.0
 11
566.7541163347938
 21
664.4627387275013
 31
0.0
  0
LINE
  5
21D
  8
0
  6
CONTINUOUS
 10
566.7541163347938
 20
664.4627387275013
 30
0.0
 11
566.9863538533926
 21
637.709493302775
 31
0.0
  0
LINE
  5
21E
  8
0
  6
CONTINUOUS
 10
566.9863538533926
 20
637.709493302775
 30
0.0
 11
567.9396122586667
 21
611.0880716039601
 31
0.0
  0
LINE
  5
21F
  8
0
  6
CONTINUOUS
 10
567.9396122586667
 20
611.0880716039601
 30
0.0
 11
569.5797580111938
 21
584.5415593355015
 31
0.0
  0
LINE
  5
220
  8
0
  6
CONTINUOUS
 10
569.5797580111938
 20
584.5415593355015
 30
0.0
 11
571.8938129413108
 21
558.0622935405536
 31
0.0
  0
LINE
  5
221
  8
0
  6
CONTINUOUS
 10
571.8938129413108
 20
558.0622935405536
 30
0.0
 11
574.8729518207293
 21
531.6618124305896
 31
0.0
  0
LINE
  5
222
  8
0
  6
CONTINUOUS
 10
574.8729518207293
 20
531.6618124305896
 30
0.0
 11
578.5072153107852
 21
505.3555237126088
 31
0.0
  0
LINE
  5
223
  8
0
  6
CONTINUOUS
 10
578.5072153107852
 20
505.3555237126088
 30
0.0
 11
582.7865056694121
 21
479.1594930454903
 31
0.0
  0
LINE
  5
224
  8
0
  6
CONTINUOUS
 10
582.7865056694121
 20
479.1594930454903
 30
0.0
 11
587.7013056512596
 21
453.0885484001117
 31
0.0
  0
LINE
  5
225
  8
0
  6
CONTINUOUS
 10
587.7013056512596
 20
453.0885484001117
 30
0.0
 11
593.2422750647405
 21
427.157257131274
 31
0.0
  0
LINE
  5
226
  8
0
  6
CONTINUOUS
 10
593.2422750647405
 20
427.157257131274
 30
0.0
 11
599.4002014365275
 21
401.3803818180445
 31
0.0
  0
LINE
  5
227
  8
0
  6
CONTINUOUS
 10
599.4002014365275
 20
401.3803818180445
 30
0.0
 11
606.1659692506977
 21
375.7727002158538
 31
0.0
  0
LINE
  5
228
  8
0
  6
CONTINUOUS
 10
606.1659692506977
 20
375.7727002158538
 30
0.0
 11
613.5307231026858
 21
350.3488555613208
 31
0.0
  0
LINE
  5
229
  8
0
  6
CONTINUOUS
 10
613.5307231026858
 20
350.3488555613208
 30
0.0
 11
621.4857167694935
 21
325.1234602031108
 31
0.0
  0
LINE
  5
22A
  8
0
  6
CONTINUOUS
 10
621.4857167694935
 20
325.1234602031108
 30
0.0
 11
630.022401135855
 21
300.1111360170356
 31
0.0
  0
LINE
  5
22B
  8
0
  6
CONTINUOUS
 10
630.022401135855
 20
300.1111360170356
 30
0.0
 11
639.1323854999403
 21
275.3264996896805
 31
0.0
  0
LINE
  5
22C
  8
0
  6
CONTINUOUS
 10
639.1323854999403
 20
275.3264996896805
 30
0.0
 11
653.8543476912369
 21
238.6084685099414
 31
0.0
  0
LINE
  5
22D
  8
0
  6
CONTINUOUS
 10
653.8543476912369
 20
238.6084685099414
 30
0.0
 11
669.3913643929379
 21
203.2678310352568
 31
0.0
  0
LINE
  5
22E
  8
0
  6
CONTINUOUS
 10
669.3913643929379
 20
203.2678310352568
 30
0.0
 11
672.5891685738173
 21
198.0329101108479
 31
0.0
  0
LINE
  5
22F
  8
0
  6
CONTINUOUS
 10
672.5891685738173
 20
198.0329101108479
 30
0.0
 11
675.9956582267071
 21
192.7818372224758
 31
0.0
  0
LINE
  5
230
  8
0
  6
CONTINUOUS
 10
675.9956582267071
 20
192.7818372224758
 30
0.0
 11
683.277198899545
 21
182.0909874602119
 31
0.0
  0
LINE
  5
231
  8
0
  6
CONTINUOUS
 10
683.277198899545
 20
182.0909874602119
 30
0.0
 11
690.9209963135064
 21
170.9147855612039
 31
0.0
  0
LINE
  5
232
  8
0
  6
CONTINUOUS
 10
690.9209963135064
 20
170.9147855612039
 30
0.0
 11
694.7803068928006
 21
165.0570225019028
 31
0.0
  0
LINE
  5
233
  8
0
  6
CONTINUOUS
 10
694.7803068928006
 20
165.0570225019028
 30
0.0
 11
698.612060370646
 21
158.9727353381938
 31
0.0
  0
LINE
  5
234
  8
0
  6
CONTINUOUS
 10
698.612060370646
 20
158.9727353381938
 30
0.0
 11
702.3768829847994
 21
152.6268620466687
 31
0.0
  0
LINE
  5
235
  8
0
  6
CONTINUOUS
 10
702.3768829847994
 20
152.6268620466687
 30
0.0
 11
706.0354009730178
 21
145.9843406039199
 31
0.0
  0
LINE
  5
236
  8
0
  6
CONTINUOUS
 10
706.0354009730178
 20
145.9843406039199
 30
0.0
 11
707.8124914317003
 21
142.5408799435229
 31
0.0
  0
LINE
  5
237
  8
0
  6
CONTINUOUS
 10
707.8124914317003
 20
142.5408799435229
 30
0.0
 11
709.5482405730579
 21
139.0101089865409
 31
0.0
  0
LINE
  5
238
  8
0
  6
CONTINUOUS
 10
709.5482405730579
 20
139.0101089865409
 30
0.0
 11
711.2377266768102
 21
135.3876449800498
 31
0.0
  0
LINE
  5
239
  8
0
  6
CONTINUOUS
 10
711.2377266768102
 20
135.3876449800498
 30
0.0
 11
712.8760280226767
 21
131.6691051711239
 31
0.0
  0
LINE
  5
23A
  8
0
  6
CONTINUOUS
 10
712.8760280226767
 20
131.6691051711239
 30
0.0
 11
714.458222890377
 21
127.8501068068358
 31
0.0
  0
LINE
  5
23B
  8
0
  6
CONTINUOUS
 10
714.458222890377
 20
127.8501068068358
 30
0.0
 11
715.9793895596308
 21
123.9262671342608
 31
0.0
  0
LINE
  5
23C
  8
0
  6
CONTINUOUS
 10
715.9793895596308
 20
123.9262671342608
 30
0.0
 11
717.4346063101576
 21
119.8932034004717
 31
0.0
  0
LINE
  5
23D
  8
0
  6
CONTINUOUS
 10
717.4346063101576
 20
119.8932034004717
 30
0.0
 11
718.8189514216771
 21
115.7465328525439
 31
0.0
  0
LINE
  5
23E
  8
0
  6
CONTINUOUS
 10
718.8189514216771
 20
115.7465328525439
 30
0.0
 11
720.1275031739086
 21
111.4818727375518
 31
0.0
  0
LINE
  5
23F
  8
0
  6
CONTINUOUS
 10
720.1275031739086
 20
111.4818727375518
 30
0.0
 11
721.3553398465723
 21
107.0948403025668
 31
0.0
  0
LINE
  5
240
  8
0
  6
CONTINUOUS
 10
721.3553398465723
 20
107.0948403025668
 30
0.0
 11
722.4975397193874
 21
102.5810527946658
 31
0.0
  0
LINE
  5
241
  8
0
  6
CONTINUOUS
 10
722.4975397193874
 20
102.5810527946658
 30
0.0
 11
723.5491810720737
 21
97.93612746092187
 31
0.0
  0
ARC
  5
242
  8
0
  6
CONTINUOUS
 10
786.3054834389387
 20
97.93612746092185
 30
0.0
 40
62.75630236686506
 50
180.0
 51
46.08293504740004
  0
LINE
  5
243
  8
0
  6
CONTINUOUS
 10
829.8342843517338
 20
143.1422883005209
 30
0.0
 11
784.1999786137143
 21
184.8681212157749
 31
0.0
  0
LINE
  5
244
  8
0
  6
CONTINUOUS
 10
784.1999786137143
 20
184.8681212157749
 30
0.0
 11
776.6422437666445
 21
192.0500934810188
 31
0.0
  0
LINE
  5
245
  8
0
  6
CONTINUOUS
 10
776.6422437666445
 20
192.0500934810188
 30
0.0
 11
773.0589335827252
 21
195.6142990255528
 31
0.0
  0
LINE
  5
246
  8
0
  6
CONTINUOUS
 10
773.0589335827252
 20
195.6142990255528
 30
0.0
 11
769.5448318658893
 21
199.2466986865518
 31
0.0
  0
LINE
  5
247
  8
0
  6
CONTINUOUS
 10
769.5448318658893
 20
199.2466986865518
 30
0.0
 11
766.4443816963719
 21
202.5906092237758
 31
0.0
  0
LINE
  5
248
  8
0
  6
CONTINUOUS
 10
766.4443816963719
 20
202.5906092237758
 30
0.0
 11
763.4202962903784
 21
206.0036898345485
 31
0.0
  0
LINE
  5
249
  8
0
  6
CONTINUOUS
 10
763.4202962903784
 20
206.0036898345485
 30
0.0
 11
760.4832086027585
 21
209.4889600467138
 31
0.0
  0
LINE
  5
24A
  8
0
  6
CONTINUOUS
 10
760.4832086027585
 20
209.4889600467138
 30
0.0
 11
757.6392697332859
 21
213.0507171840264
 31
0.0
  0
LINE
  5
24B
  8
0
  6
CONTINUOUS
 10
757.6392697332859
 20
213.0507171840264
 30
0.0
 11
754.8552788946361
 21
216.7456468007297
 31
0.0
  0
LINE
  5
24C
  8
0
  6
CONTINUOUS
 10
754.8552788946361
 20
216.7456468007297
 30
0.0
 11
752.1810479624768
 21
220.5205798835159
 31
0.0
  0
LINE
  5
24D
  8
0
  6
CONTINUOUS
 10
752.1810479624768
 20
220.5205798835159
 30
0.0
 11
749.5433607347665
 21
224.4947468181227
 31
0.0
  0
LINE
  5
24E
  8
0
  6
CONTINUOUS
 10
749.5433607347665
 20
224.4947468181227
 30
0.0
 11
747.0249267457506
 21
228.5461366862835
 31
0.0
  0
LINE
  5
24F
  8
0
  6
CONTINUOUS
 10
747.0249267457506
 20
228.5461366862835
 30
0.0
 11
744.5158373499346
 21
232.8636355374115
 31
0.0
  0
LINE
  5
250
  8
0
  6
CONTINUOUS
 10
744.5158373499346
 20
232.8636355374115
 30
0.0
 11
742.1502013853296
 21
237.2601271361848
 31
0.0
  0
LINE
  5
251
  8
0
  6
CONTINUOUS
 10
742.1502013853296
 20
237.2601271361848
 30
0.0
 11
739.7979821813416
 21
242.0050096472899
 31
0.0
  0
LINE
  5
252
  8
0
  6
CONTINUOUS
 10
739.7979821813416
 20
242.0050096472899
 30
0.0
 11
737.5361690459843
 21
246.7954695911093
 31
0.0
  0
ARC
  5
253
  8
LAYER_01
  6
CONTINUOUS
 10
218.878521112538
 20
737.542225487322
 30
0.0
 40
2.000000000000682
 50
286.6015495990517
 51
0.0
  0
LINE
  5
254
  8
LAYER_01
  6
CONTINUOUS
 10
220.8785211125387
 20
737.542225487322
 30
0.0
 11
220.8785211125388
 21
742.1258176225219
 31
0.0
  0
ARC
  5
255
  8
LAYER_01
  6
CONTINUOUS
 10
218.8785211125385
 20
742.1258176225219
 30
0.0
 40
2.000000000000369
 50
0.0
 51
73.39845040095815
  0
ARC
  5
256
  8
LAYER_01
  6
CONTINUOUS
 10
220.8785211125386
 20
748.8340215550221
 30
0.0
 40
5.000000000000286
 50
16.60154959900862
 51
253.3984504009897
  0
ARC
  5
257
  8
LAYER_01
  6
CONTINUOUS
 10
227.5867250450387
 20
750.8340215550221
 30
0.0
 40
2.000000000000341
 50
196.6015495990441
 51
269.9999999999992
  0
LINE
  5
258
  8
LAYER_01
  6
CONTINUOUS
 10
227.5867250450387
 20
748.8340215550218
 30
0.0
 11
274.1703171800388
 21
748.8340215550216
 31
0.0
  0
ARC
  5
259
  8
LAYER_01
  6
CONTINUOUS
 10
274.1703171800388
 20
750.834021555022
 30
0.0
 40
2.000000000000341
 50
270.0
 51
343.3984504009592
  0
ARC
  5
25A
  8
LAYER_01
  6
CONTINUOUS
 10
280.878521112539
 20
748.834021555022
 30
0.0
 40
5.000000000000551
 50
286.6015495990105
 51
163.398450400991
  0
ARC
  5
25B
  8
LAYER_01
  6
CONTINUOUS
 10
282.8785211125389
 20
742.1258176225219
 30
0.0
 40
2.000000000000114
 50
106.6015495990375
 51
180.0
  0
LINE
  5
25C
  8
LAYER_01
  6
CONTINUOUS
 10
280.8785211125388
 20
742.1258176225219
 30
0.0
 11
280.8785211125386
 21
737.542225487322
 31
0.0
  0
ARC
  5
25D
  8
LAYER_01
  6
CONTINUOUS
 10
282.8785211125391
 20
737.542225487322
 30
0.0
 40
2.000000000000455
 50
180.0
 51
253.398450400955
  0
ARC
  5
25E
  8
LAYER_01
  6
CONTINUOUS
 10
280.8785211125384
 20
730.8340215548219
 30
0.0
 40
5.000000000000239
 50
196.6015495990169
 51
73.39845040098243
  0
ARC
  5
25F
  8
LAYER_01
  6
CONTINUOUS
 10
274.1703171800388
 20
728.8340215548217
 30
0.0
 40
2.000000000000227
 50
16.60154959903499
 51
90.0
  0
LINE
  5
260
  8
LAYER_01
  6
CONTINUOUS
 10
274.1703171800388
 20
730.8340215548219
 30
0.0
 11
227.5867250450387
 21
730.8340215548219
 31
0.0
  0
ARC
  5
261
  8
LAYER_01
  6
CONTINUOUS
 10
227.5867250450387
 20
728.8340215548214
 30
0.0
 40
2.000000000000455
 50
90.0
 51
163.3984504009568
  0
ARC
  5
262
  8
LAYER_01
  6
CONTINUOUS
 10
220.8785211125385
 20
730.8340215548214
 30
0.0
 40
5.000000000000469
 50
106.6015495990095
 51
343.3984504009907
  0
LINE
  5
263
  8
0
  6
CONTINUOUS
 10
805.9565629852387
 20
201.7300296167218
 30
0.0
 11
825.9565629852278
 21
201.7300296167149
 31
0.0
  0
LINE
  5
264
  8
0
  6
CONTINUOUS
 10
825.9565629852278
 20
201.7300296167149
 30
0.0
 11
829.5996929377203
 21
201.6839427839668
 31
0.0
  0
LINE
  5
265
  8
0
  6
CONTINUOUS
 10
829.5996929377203
 20
201.6839427839668
 30
0.0
 11
833.0757627913232
 21
201.5459875558029
 31
0.0
  0
LINE
  5
266
  8
0
  6
CONTINUOUS
 10
833.0757627913232
 20
201.5459875558029
 30
0.0
 11
836.3898637595347
 21
201.3166215731758
 31
0.0
  0
LINE
  5
267
  8
0
  6
CONTINUOUS
 10
836.3898637595347
 20
201.3166215731758
 30
0.0
 11
839.5470870558527
 21
200.9963024770399
 31
0.0
  0
LINE
  5
268
  8
0
  6
CONTINUOUS
 10
839.5470870558527
 20
200.9963024770399
 30
0.0
 11
841.0684518834615
 21
200.8021826034409
 31
0.0
  0
LINE
  5
269
  8
0
  6
CONTINUOUS
 10
841.0684518834615
 20
200.8021826034409
 30
0.0
 11
842.5524521441654
 21
200.5855208253438
 31
0.0
  0
LINE
  5
26A
  8
0
  6
CONTINUOUS
 10
842.5524521441654
 20
200.5855208253438
 30
0.0
 11
843.9996699037526
 21
200.3463991171768
 31
0.0
  0
LINE
  5
26B
  8
0
  6
CONTINUOUS
 10
843.9996699037526
 20
200.3463991171768
 30
0.0
 11
845.4106872280116
 21
200.0848994533678
 31
0.0
  0
LINE
  5
26C
  8
0
  6
CONTINUOUS
 10
845.4106872280116
 20
200.0848994533678
 30
0.0
 11
846.7860861827307
 21
199.8011038083458
 31
0.0
  0
LINE
  5
26D
  8
0
  6
CONTINUOUS
 10
846.7860861827307
 20
199.8011038083458
 30
0.0
 11
848.1264488336983
 21
199.4950941565388
 31
0.0
  0
LINE
  5
26E
  8
0
  6
CONTINUOUS
 10
848.1264488336983
 20
199.4950941565388
 30
0.0
 11
849.4323572467027
 21
199.1669524723758
 31
0.0
  0
LINE
  5
26F
  8
0
  6
CONTINUOUS
 10
849.4323572467027
 20
199.1669524723758
 30
0.0
 11
850.704393487532
 21
198.8167607302838
 31
0.0
  0
LINE
  5
270
  8
0
  6
CONTINUOUS
 10
850.704393487532
 20
198.8167607302838
 30
0.0
 11
851.9431305728604
 21
198.4446050329038
 31
0.0
  0
LINE
  5
271
  8
0
  6
CONTINUOUS
 10
851.9431305728604
 20
198.4446050329038
 30
0.0
 11
853.1491053229039
 21
198.0505879957199
 31
0.0
  0
LINE
  5
272
  8
0
  6
CONTINUOUS
 10
853.1491053229039
 20
198.0505879957199
 30
0.0
 11
854.3228455087643
 21
197.6348163624289
 31
0.0
  0
LINE
  5
273
  8
0
  6
CONTINUOUS
 10
854.3228455087643
 20
197.6348163624289
 30
0.0
 11
855.4648789015434
 21
197.1973968767269
 31
0.0
  0
LINE
  5
274
  8
0
  6
CONTINUOUS
 10
855.4648789015434
 20
197.1973968767269
 30
0.0
 11
856.575733272343
 21
196.7384362823109
 31
0.0
  0
LINE
  5
275
  8
0
  6
CONTINUOUS
 10
856.575733272343
 20
196.7384362823109
 30
0.0
 11
857.6559363922646
 21
196.2580413228758
 31
0.0
  0
LINE
  5
276
  8
0
  6
CONTINUOUS
 10
857.6559363922646
 20
196.2580413228758
 30
0.0
 11
858.7060160324102
 21
195.7563187421189
 31
0.0
  0
LINE
  5
277
  8
0
  6
CONTINUOUS
 10
858.7060160324102
 20
195.7563187421189
 30
0.0
 11
859.7264999638813
 21
195.2333752837368
 31
0.0
  0
LINE
  5
278
  8
0
  6
CONTINUOUS
 10
859.7264999638813
 20
195.2333752837368
 30
0.0
 11
860.7179069086657
 21
194.6893218196368
 31
0.0
  0
LINE
  5
279
  8
0
  6
CONTINUOUS
 10
860.7179069086657
 20
194.6893218196368
 30
0.0
 11
861.6807193922924
 21
194.1242857345718
 31
0.0
  0
LINE
  5
27A
  8
0
  6
CONTINUOUS
 10
861.6807193922924
 20
194.1242857345718
 30
0.0
 11
862.6154108911768
 21
193.5383985415058
 31
0.0
  0
LINE
  5
27B
  8
0
  6
CONTINUOUS
 10
862.6154108911768
 20
193.5383985415058
 30
0.0
 11
863.522454881734
 21
192.9317917534048
 31
0.0
  0
LINE
  5
27C
  8
0
  6
CONTINUOUS
 10
863.522454881734
 20
192.9317917534048
 30
0.0
 11
864.4023248403793
 21
192.3045968832319
 31
0.0
  0
LINE
  5
27D
  8
0
  6
CONTINUOUS
 10
864.4023248403793
 20
192.3045968832319
 30
0.0
 11
865.2554942435278
 21
191.6569454439518
 31
0.0
  0
LINE
  5
27E
  8
0
  6
CONTINUOUS
 10
865.2554942435278
 20
191.6569454439518
 30
0.0
 11
866.0824365675946
 21
190.9889689485278
 31
0.0
  0
LINE
  5
27F
  8
0
  6
CONTINUOUS
 10
866.0824365675946
 20
190.9889689485278
 30
0.0
 11
866.883625288995
 21
190.3007989099258
 31
0.0
  0
LINE
  5
280
  8
0
  6
CONTINUOUS
 10
866.883625288995
 20
190.3007989099258
 30
0.0
 11
867.6595248350296
 21
189.5925709693219
 31
0.0
  0
LINE
  5
281
  8
0
  6
CONTINUOUS
 10
867.6595248350296
 20
189.5925709693219
 30
0.0
 11
868.4105634365415
 21
188.8644372807348
 31
0.0
  0
LINE
  5
282
  8
0
  6
CONTINUOUS
 10
868.4105634365415
 20
188.8644372807348
 30
0.0
 11
869.137160275259
 21
188.1165541263998
 31
0.0
  0
LINE
  5
283
  8
0
  6
CONTINUOUS
 10
869.137160275259
 20
188.1165541263998
 30
0.0
 11
869.8397345329109
 21
187.3490777885469
 31
0.0
  0
LINE
  5
284
  8
0
  6
CONTINUOUS
 10
869.8397345329109
 20
187.3490777885469
 30
0.0
 11
870.5187053912259
 21
186.5621645494099
 31
0.0
  0
LINE
  5
285
  8
0
  6
CONTINUOUS
 10
870.5187053912259
 20
186.5621645494099
 30
0.0
 11
871.1744920319323
 21
185.7559706912208
 31
0.0
  0
LINE
  5
286
  8
0
  6
CONTINUOUS
 10
871.1744920319323
 20
185.7559706912208
 30
0.0
 11
871.8075136367589
 21
184.9306524962118
 31
0.0
  0
LINE
  5
287
  8
0
  6
CONTINUOUS
 10
871.8075136367589
 20
184.9306524962118
 30
0.0
 11
872.418189387434
 21
184.0863662466159
 31
0.0
  0
LINE
  5
288
  8
0
  6
CONTINUOUS
 10
872.418189387434
 20
184.0863662466159
 30
0.0
 11
873.006929416572
 21
183.2232723528768
 31
0.0
  0
LINE
  5
289
  8
0
  6
CONTINUOUS
 10
873.006929416572
 20
183.2232723528768
 30
0.0
 11
873.5741076603291
 21
182.3415477382829
 31
0.0
  0
LINE
  5
28A
  8
0
  6
CONTINUOUS
 10
873.5741076603291
 20
182.3415477382829
 30
0.0
 11
874.1200890057477
 21
181.4413734543348
 31
0.0
  0
LINE
  5
28B
  8
0
  6
CONTINUOUS
 10
874.1200890057477
 20
181.4413734543348
 30
0.0
 11
874.6452383398693
 21
180.5229305525338
 31
0.0
  0
LINE
  5
28C
  8
0
  6
CONTINUOUS
 10
874.6452383398693
 20
180.5229305525338
 30
0.0
 11
875.1499205497361
 21
179.5864000843799
 31
0.0
  0
LINE
  5
28D
  8
0
  6
CONTINUOUS
 10
875.1499205497361
 20
179.5864000843799
 30
0.0
 11
875.6345005223901
 21
178.6319631013739
 31
0.0
  0
LINE
  5
28E
  8
0
  6
CONTINUOUS
 10
875.6345005223901
 20
178.6319631013739
 30
0.0
 11
876.0993431448732
 21
177.6598006550148
 31
0.0
  0
LINE
  5
28F
  8
0
  6
CONTINUOUS
 10
876.0993431448732
 20
177.6598006550148
 30
0.0
 11
876.5448133042274
 21
176.6700937968048
 31
0.0
  0
LINE
  5
290
  8
0
  6
CONTINUOUS
 10
876.5448133042274
 20
176.6700937968048
 30
0.0
 11
876.9712668383804
 21
175.6630277064548
 31
0.0
  0
LINE
  5
291
  8
0
  6
CONTINUOUS
 10
876.9712668383804
 20
175.6630277064548
 30
0.0
 11
877.3790233888018
 21
174.6388040765219
 31
0.0
  0
LINE
  5
292
  8
0
  6
CONTINUOUS
 10
877.3790233888018
 20
174.6388040765219
 30
0.0
 11
877.768393547847
 21
173.5976287277758
 31
0.0
  0
LINE
  5
293
  8
0
  6
CONTINUOUS
 10
877.768393547847
 20
173.5976287277758
 30
0.0
 11
878.1396879078717
 21
172.5397074809828
 31
0.0
  0
LINE
  5
294
  8
0
  6
CONTINUOUS
 10
878.1396879078717
 20
172.5397074809828
 30
0.0
 11
878.493217061231
 21
171.4652461569128
 31
0.0
  0
LINE
  5
295
  8
0
  6
CONTINUOUS
 10
878.493217061231
 20
171.4652461569128
 30
0.0
 11
878.8292916002805
 21
170.3744505763339
 31
0.0
  0
LINE
  5
296
  8
0
  6
CONTINUOUS
 10
878.8292916002805
 20
170.3744505763339
 30
0.0
 11
879.1482221173754
 21
169.2675265600158
 31
0.0
  0
LINE
  5
297
  8
0
  6
CONTINUOUS
 10
879.1482221173754
 20
169.2675265600158
 30
0.0
 11
879.4503192048713
 21
168.1446799287248
 31
0.0
  0
LINE
  5
298
  8
0
  6
CONTINUOUS
 10
879.4503192048713
 20
168.1446799287248
 30
0.0
 11
880.0051830675719
 21
165.8520751299939
 31
0.0
  0
LINE
  5
299
  8
0
  6
CONTINUOUS
 10
880.0051830675719
 20
165.8520751299939
 30
0.0
 11
880.4960059626482
 21
163.4984478747419
 31
0.0
  0
LINE
  5
29A
  8
0
  6
CONTINUOUS
 10
880.4960059626482
 20
163.4984478747419
 30
0.0
 11
880.9248382714505
 21
161.0856428832608
 31
0.0
  0
LINE
  5
29B
  8
0
  6
CONTINUOUS
 10
880.9248382714505
 20
161.0856428832608
 30
0.0
 11
881.2937303753296
 21
158.6155048758428
 31
0.0
  0
LINE
  5
29C
  8
0
  6
CONTINUOUS
 10
881.2937303753296
 20
158.6155048758428
 30
0.0
 11
881.6046602627204
 21
156.0899115984719
 31
0.0
  0
LINE
  5
29D
  8
0
  6
CONTINUOUS
 10
881.6046602627204
 20
156.0899115984719
 30
0.0
 11
881.8593163503959
 21
153.5108728998928
 31
0.0
  0
LINE
  5
29E
  8
0
  6
CONTINUOUS
 10
881.8593163503959
 20
153.5108728998928
 30
0.0
 11
882.0593146622144
 21
150.8804316545429
 31
0.0
  0
LINE
  5
29F
  8
0
  6
CONTINUOUS
 10
882.0593146622144
 20
150.8804316545429
 30
0.0
 11
882.2062712220333
 21
148.2006307368579
 31
0.0
  0
LINE
  5
2A0
  8
0
  6
CONTINUOUS
 10
882.2062712220333
 20
148.2006307368579
 30
0.0
 11
882.3017296607949
 21
145.4735460469658
 31
0.0
  0
LINE
  5
2A1
  8
0
  6
CONTINUOUS
 10
882.3017296607949
 20
145.4735460469658
 30
0.0
 11
882.3469440377801
 21
142.7013855877558
 31
0.0
  0
LINE
  5
2A2
  8
0
  6
CONTINUOUS
 10
882.3469440377801
 20
142.7013855877558
 30
0.0
 11
882.2913672718809
 21
137.0308014757047
 31
0.0
  0
LINE
  5
2A3
  8
0
  6
CONTINUOUS
 10
882.2913672718809
 20
137.0308014757047
 30
0.0
 11
882.0484151119329
 21
131.2070708348799
 31
0.0
  0
LINE
  5
2A4
  8
0
  6
CONTINUOUS
 10
882.0484151119329
 20
131.2070708348799
 30
0.0
 11
881.6246451722386
 21
125.2494429215528
 31
0.0
  0
LINE
  5
2A5
  8
0
  6
CONTINUOUS
 10
881.6246451722386
 20
125.2494429215528
 30
0.0
 11
881.0254567804537
 21
119.1776954030518
 31
0.0
  0
LINE
  5
2A6
  8
0
  6
CONTINUOUS
 10
881.0254567804537
 20
119.1776954030518
 30
0.0
 11
880.2539326909397
 21
113.0126627688048
 31
0.0
  0
LINE
  5
2A7
  8
0
  6
CONTINUOUS
 10
880.2539326909397
 20
113.0126627688048
 30
0.0
 11
879.3119973714103
 21
106.7757079192918
 31
0.0
  0
LINE
  5
2A8
  8
0
  6
CONTINUOUS
 10
879.3119973714103
 20
106.7757079192918
 30
0.0
 11
878.1992587162853
 21
100.4892505770968
 31
0.0
  0
LINE
  5
2A9
  8
0
  6
CONTINUOUS
 10
878.1992587162853
 20
100.4892505770968
 30
0.0
 11
876.9141663333369
 21
94.17623887585273
 31
0.0
  0
LINE
  5
2AA
  8
0
  6
CONTINUOUS
 10
876.9141663333369
 20
94.17623887585273
 30
0.0
 11
875.4528532570433
 21
87.86067777129892
 31
0.0
  0
LINE
  5
2AB
  8
0
  6
CONTINUOUS
 10
875.4528532570433
 20
87.86067777129892
 30
0.0
 11
873.8102942352356
 21
81.56710063022274
 31
0.0
  0
LINE
  5
2AC
  8
0
  6
CONTINUOUS
 10
873.8102942352356
 20
81.56710063022274
 30
0.0
 11
871.97914744245
 21
75.32109764151687
 31
0.0
  0
LINE
  5
2AD
  8
0
  6
CONTINUOUS
 10
871.97914744245
 20
75.32109764151687
 30
0.0
 11
869.9509127665757
 21
69.14878740512472
 31
0.0
  0
LINE
  5
2AE
  8
0
  6
CONTINUOUS
 10
869.9509127665757
 20
69.14878740512472
 30
0.0
 11
868.8595434547491
 21
66.09874287558978
 31
0.0
  0
LINE
  5
2AF
  8
0
  6
CONTINUOUS
 10
868.8595434547491
 20
66.09874287558978
 30
0.0
 11
867.7147735222079
 21
63.07734534309179
 31
0.0
  0
ARC
  5
2B0
  8
0
  6
CONTINUOUS
 10
869.5781598259388
 20
62.35085275332176
 30
0.0
 40
2.000000000000118
 50
158.7003035226027
 51
270.7574308742024
  0
LINE
  5
2B1
  8
0
  6
CONTINUOUS
 10
869.6045983810806
 20
60.35102751025614
 30
0.0
 11
874.9625937305071
 21
60.48819361013693
 31
0.0
  0
LINE
  5
2B2
  8
0
  6
CONTINUOUS
 10
874.9625937305071
 20
60.48819361013693
 30
0.0
 11
880.1900275405058
 21
60.75629579530187
 31
0.0
  0
LINE
  5
2B3
  8
0
  6
CONTINUOUS
 10
880.1900275405058
 20
60.75629579530187
 30
0.0
 11
885.2868998110765
 21
61.15533406575173
 31
0.0
  0
LINE
  5
2B4
  8
0
  6
CONTINUOUS
 10
885.2868998110765
 20
61.15533406575173
 30
0.0
 11
890.2532105422197
 21
61.68530842148675
 31
0.0
  0
LINE
  5
2B5
  8
0
  6
CONTINUOUS
 10
890.2532105422197
 20
61.68530842148675
 30
0.0
 11
895.0889597339352
 21
62.34621886250579
 31
0.0
  0
LINE
  5
2B6
  8
0
  6
CONTINUOUS
 10
895.0889597339352
 20
62.34621886250579
 30
0.0
 11
899.7941473862232
 21
63.1380653888109
 31
0.0
  0
LINE
  5
2B7
  8
0
  6
CONTINUOUS
 10
899.7941473862232
 20
63.1380653888109
 30
0.0
 11
904.3687734990839
 21
64.0608480003998
 31
0.0
  0
LINE
  5
2B8
  8
0
  6
CONTINUOUS
 10
904.3687734990839
 20
64.0608480003998
 30
0.0
 11
908.8128380725174
 21
65.11456669727477
 31
0.0
  0
LINE
  5
2B9
  8
0
  6
CONTINUOUS
 10
908.8128380725174
 20
65.11456669727477
 30
0.0
 11
910.9859097819489
 21
65.69052707769379
 31
0.0
  0
LINE
  5
2BA
  8
0
  6
CONTINUOUS
 10
910.9859097819489
 20
65.69052707769379
 30
0.0
 11
913.1263411065236
 21
66.29922147943375
 31
0.0
  0
LINE
  5
2BB
  8
0
  6
CONTINUOUS
 10
913.1263411065236
 20
66.29922147943375
 30
0.0
 11
915.2341320462416
 21
66.9406499024958
 31
0.0
  0
LINE
  5
2BC
  8
0
  6
CONTINUOUS
 10
915.2341320462416
 20
66.9406499024958
 30
0.0
 11
917.3092826011028
 21
67.61481234687881
 31
0.0
  0
LINE
  5
2BD
  8
0
  6
CONTINUOUS
 10
917.3092826011028
 20
67.61481234687881
 30
0.0
 11
919.3517927711074
 21
68.32170881258276
 31
0.0
  0
LINE
  5
2BE
  8
0
  6
CONTINUOUS
 10
919.3517927711074
 20
68.32170881258276
 30
0.0
 11
921.3616625562552
 21
69.06133929960879
 31
0.0
  0
LINE
  5
2BF
  8
0
  6
CONTINUOUS
 10
921.3616625562552
 20
69.06133929960879
 30
0.0
 11
923.3388919565463
 21
69.83370380795486
 31
0.0
  0
LINE
  5
2C0
  8
0
  6
CONTINUOUS
 10
923.3388919565463
 20
69.83370380795486
 30
0.0
 11
925.2834809719806
 21
70.63880233762279
 31
0.0
  0
LINE
  5
2C1
  8
0
  6
CONTINUOUS
 10
925.2834809719806
 20
70.63880233762279
 30
0.0
 11
927.1954296025584
 21
71.47663488861281
 31
0.0
  0
LINE
  5
2C2
  8
0
  6
CONTINUOUS
 10
927.1954296025584
 20
71.47663488861281
 30
0.0
 11
929.0747378482794
 21
72.34720146092286
 31
0.0
  0
LINE
  5
2C3
  8
0
  6
CONTINUOUS
 10
929.0747378482794
 20
72.34720146092286
 30
0.0
 11
930.9214057091439
 21
73.25050205455477
 31
0.0
  0
LINE
  5
2C4
  8
0
  6
CONTINUOUS
 10
930.9214057091439
 20
73.25050205455477
 30
0.0
 11
932.7354331851515
 21
74.18653666950786
 31
0.0
  0
LINE
  5
2C5
  8
0
  6
CONTINUOUS
 10
932.7354331851515
 20
74.18653666950786
 30
0.0
 11
934.5168202763026
 21
75.1553053057828
 31
0.0
  0
LINE
  5
2C6
  8
0
  6
CONTINUOUS
 10
934.5168202763026
 20
75.1553053057828
 30
0.0
 11
936.2655669825971
 21
76.15680796337892
 31
0.0
  0
LINE
  5
2C7
  8
0
  6
CONTINUOUS
 10
936.2655669825971
 20
76.15680796337892
 30
0.0
 11
937.981673304035
 21
77.1910446422969
 31
0.0
  0
LINE
  5
2C8
  8
0
  6
CONTINUOUS
 10
937.981673304035
 20
77.1910446422969
 30
0.0
 11
939.6651392406161
 21
78.25801534253515
 31
0.0
  0
ARC
  5
2C9
  8
0
  6
CONTINUOUS
 10
938.5753796612388
 20
79.93504368432173
 30
0.0
 40
2.00000000000001
 50
303.0164492631996
 51
0.6373340204015151
  0
LINE
  5
2CA
  8
0
  6
CONTINUOUS
 10
940.5752559285473
 20
79.95729037971842
 30
0.0
 11
940.520924206919
 21
82.38798105160572
 31
0.0
  0
LINE
  5
2CB
  8
0
  6
CONTINUOUS
 10
940.520924206919
 20
82.38798105160572
 30
0.0
 11
940.4109984234848
 21
84.93996209918282
 31
0.0
  0
LINE
  5
2CC
  8
0
  6
CONTINUOUS
 10
940.4109984234848
 20
84.93996209918282
 30
0.0
 11
940.0265598708214
 21
90.39408055210174
 31
0.0
  0
LINE
  5
2CD
  8
0
  6
CONTINUOUS
 10
940.0265598708214
 20
90.39408055210174
 30
0.0
 11
939.4263306698001
 21
96.29221619987675
 31
0.0
  0
LINE
  5
2CE
  8
0
  6
CONTINUOUS
 10
939.4263306698001
 20
96.29221619987675
 30
0.0
 11
938.6147012196634
 21
102.6069395039058
 31
0.0
  0
LINE
  5
2CF
  8
0
  6
CONTINUOUS
 10
938.6147012196634
 20
102.6069395039058
 30
0.0
 11
937.5960619196543
 21
109.3108209255888
 31
0.0
  0
LINE
  5
2D0
  8
0
  6
CONTINUOUS
 10
937.5960619196543
 20
109.3108209255888
 30
0.0
 11
936.3748031690154
 21
116.3764309263258
 31
0.0
  0
LINE
  5
2D1
  8
0
  6
CONTINUOUS
 10
936.3748031690154
 20
116.3764309263258
 30
0.0
 11
933.3419889128199
 21
131.4831185105588
 31
0.0
  0
LINE
  5
2D2
  8
0
  6
CONTINUOUS
 10
933.3419889128199
 20
131.4831185105588
 30
0.0
 11
929.5513816450192
 21
147.7075659477989
 31
0.0
  0
LINE
  5
2D3
  8
0
  6
CONTINUOUS
 10
929.5513816450192
 20
147.7075659477989
 30
0.0
 11
925.0381045595556
 21
164.8303369292439
 31
0.0
  0
LINE
  5
2D4
  8
0
  6
CONTINUOUS
 10
925.0381045595556
 20
164.8303369292439
 30
0.0
 11
919.8372808503713
 21
182.6319951460878
 31
0.0
  0
LINE
  5
2D5
  8
0
  6
CONTINUOUS
 10
919.8372808503713
 20
182.6319951460878
 30
0.0
 11
913.9840337114089
 21
200.8931042895279
 31
0.0
  0
LINE
  5
2D6
  8
0
  6
CONTINUOUS
 10
913.9840337114089
 20
200.8931042895279
 30
0.0
 11
907.5134863366103
 21
219.3942280507599
 31
0.0
  0
LINE
  5
2D7
  8
0
  6
CONTINUOUS
 10
907.5134863366103
 20
219.3942280507599
 30
0.0
 11
900.4607619199182
 21
237.9159301209793
 31
0.0
  0
LINE
  5
2D8
  8
0
  6
CONTINUOUS
 10
900.4607619199182
 20
237.9159301209793
 30
0.0
 11
892.8609836552747
 21
256.2387741913819
 31
0.0
  0
LINE
  5
2D9
  8
0
  6
CONTINUOUS
 10
892.8609836552747
 20
256.2387741913819
 30
0.0
 11
884.7492747366223
 21
274.1433239531639
 31
0.0
  0
LINE
  5
2DA
  8
0
  6
CONTINUOUS
 10
884.7492747366223
 20
274.1433239531639
 30
0.0
 11
880.5124222801497
 21
282.8701646218208
 31
0.0
  0
LINE
  5
2DB
  8
0
  6
CONTINUOUS
 10
880.5124222801497
 20
282.8701646218208
 30
0.0
 11
876.1607583579032
 21
291.410143097521
 31
0.0
  0
LINE
  5
2DC
  8
0
  6
CONTINUOUS
 10
876.1607583579032
 20
291.410143097521
 30
0.0
 11
871.6986733691256
 21
299.7358298416639
 31
0.0
  0
LINE
  5
2DD
  8
0
  6
CONTINUOUS
 10
871.6986733691256
 20
299.7358298416639
 30
0.0
 11
867.1305577130596
 21
307.8197953156492
 31
0.0
  0
LINE
  5
2DE
  8
0
  6
CONTINUOUS
 10
867.1305577130596
 20
307.8197953156492
 30
0.0
 11
862.4608017889482
 21
315.6346099808762
 31
0.0
  0
LINE
  5
2DF
  8
0
  6
CONTINUOUS
 10
862.4608017889482
 20
315.6346099808762
 30
0.0
 11
857.693795996034
 21
323.1528442987444
 31
0.0
  0
LINE
  5
2E0
  8
0
  6
CONTINUOUS
 10
857.693795996034
 20
323.1528442987444
 30
0.0
 11
852.83393073356
 21
330.3470687306533
 31
0.0
  0
LINE
  5
2E1
  8
0
  6
CONTINUOUS
 10
852.83393073356
 20
330.3470687306533
 30
0.0
 11
847.8855964007687
 21
337.1898537380023
 31
0.0
  0
ARC
  5
2E2
  8
0
  6
CONTINUOUS
 10
846.2853269137388
 20
335.9902131381218
 30
0.0
 40
2.000000000000074
 50
36.85702866089965
 51
180.0
  0
LINE
  5
2E3
  8
0
  6
CONTINUOUS
 10
844.2853269137387
 20
335.9902131381218
 30
0.0
 11
844.2853269137388
 21
278.5731013929218
 31
0.0
  0
ARC
  5
2E4
  8
0
  6
CONTINUOUS
 10
846.2853269137386
 20
278.5731013929217
 30
0.0
 40
1.999999999999773
 50
179.9999999999967
 51
253.3984504009711
  0
ARC
  5
2E5
  8
0
  6
CONTINUOUS
 10
844.2853269137395
 20
271.8648974604213
 30
0.0
 40
5.000000000000998
 50
196.6015495990055
 51
73.39845040099658
  0
ARC
  5
2E6
  8
0
  6
CONTINUOUS
 10
837.5771229812387
 20
269.8648974604215
 30
0.0
 40
2.000000000000398
 50
16.60154959904186
 51
90.0
  0
LINE
  5
2E7
  8
0
  6
CONTINUOUS
 10
837.5771229812387
 20
271.8648974604219
 30
0.0
 11
832.9935308462387
 21
271.8648974604218
 31
0.0
  0
ARC
  5
2E8
  8
0
  6
CONTINUOUS
 10
832.9935308462387
 20
269.8648974604213
 30
0.0
 40
2.000000000000512
 50
90.0
 51
163.3984504009528
  0
ARC
  5
2E9
  8
0
  6
CONTINUOUS
 10
826.2853269137386
 20
271.8648974604216
 30
0.0
 40
5.000000000000386
 50
106.601549599011
 51
343.3984504009904
  0
ARC
  5
2EA
  8
0
  6
CONTINUOUS
 10
824.2853269137383
 20
278.5731013929218
 30
0.0
 40
2.000000000000568
 50
286.601549599042
 51
0.0
  0
LINE
  5
2EB
  8
0
  6
CONTINUOUS
 10
826.2853269137389
 20
278.5731013929218
 30
0.0
 11
826.2853269137388
 21
339.8648974604218
 31
0.0
  0
ARC
  5
2EC
  8
0
  6
CONTINUOUS
 10
824.2853269137388
 20
339.8648974604218
 30
0.0
 40
2.0
 50
0.0
 51
90.0
  0
LINE
  5
2ED
  8
0
  6
CONTINUOUS
 10
824.2853269137388
 20
341.8648974604218
 30
0.0
 11
805.9565629852387
 21
341.8648974604218
 31
0.0
  0
ARC
  5
2EE
  8
0
  6
CONTINUOUS
 10
805.9565629852387
 20
331.8648974604218
 30
0.0
 40
10.0
 50
90.0
 51
180.0
  0
LINE
  5
2EF
  8
0
  6
CONTINUOUS
 10
795.9565629852387
 20
331.8648974604218
 30
0.0
 11
795.9565629852387
 21
211.7300296167218
 31
0.0
  0
ARC
  5
2F0
  8
0
  6
CONTINUOUS
 10
805.9565629852387
 20
211.7300296167218
 30
0.0
 40
10.0
 50
180.0
 51
270.0
  0
ARC
  5
2F1
  8
LAYER_01
  6
CONTINUOUS
 10
313.1271225570382
 20
217.9483743861217
 30
0.0
 40
2.000000000000739
 50
286.6015495990491
 51
0.0000000000032569
  0
LINE
  5
2F2
  8
LAYER_01
  6
CONTINUOUS
 10
315.1271225570389
 20
217.9483743861219
 30
0.0
 11
315.1271225570389
 21
222.5319665211218
 31
0.0
  0
ARC
  5
2F3
  8
LAYER_01
  6
CONTINUOUS
 10
313.1271225570385
 20
222.5319665211218
 30
0.0
 40
2.000000000000398
 50
0.0
 51
73.39845040096151
  0
ARC
  5
2F4
  8
LAYER_01
  6
CONTINUOUS
 10
315.1271225570385
 20
229.2401704536218
 30
0.0
 40
5.000000000000179
 50
16.60154959901302
 51
253.3984504009883
  0
ARC
  5
2F5
  8
LAYER_01
  6
CONTINUOUS
 10
321.8353264895387
 20
231.2401704536221
 30
0.0
 40
2.000000000000227
 50
196.6015495990417
 51
270.0
  0
LINE
  5
2F6
  8
LAYER_01
  6
CONTINUOUS
 10
321.8353264895387
 20
229.2401704536219
 30
0.0
 11
328.4189186245388
 21
229.2401704536219
 31
0.0
  0
ARC
  5
2F7
  8
LAYER_01
  6
CONTINUOUS
 10
328.4189186245388
 20
231.2401704536221
 30
0.0
 40
2.000000000000227
 50
270.0
 51
343.3984504009583
  0
ARC
  5
2F8
  8
LAYER_01
  6
CONTINUOUS
 10
335.1271225570388
 20
229.2401704536221
 30
0.0
 40
5.00000000000045
 50
286.6015495990108
 51
163.3984504009903
  0
ARC
  5
2F9
  8
LAYER_01
  6
CONTINUOUS
 10
337.1271225570392
 20
222.5319665211218
 30
0.0
 40
2.000000000000512
 50
106.6015495990476
 51
180.0
  0
LINE
  5
2FA
  8
LAYER_01
  6
CONTINUOUS
 10
335.1271225570387
 20
222.5319665211218
 30
0.0
 11
335.1271225570387
 21
217.9483743861218
 31
0.0
  0
ARC
  5
2FB
  8
LAYER_01
  6
CONTINUOUS
 10
337.1271225570393
 20
217.9483743861218
 30
0.0
 40
2.000000000000625
 50
180.0
 51
253.3984504009515
  0
ARC
  5
2FC
  8
LAYER_01
  6
CONTINUOUS
 10
335.1271225570388
 20
211.2401704536216
 30
0.0
 40
5.000000000000289
 50
196.6015495990096
 51
73.39845040098736
  0
ARC
  5
2FD
  8
LAYER_01
  6
CONTINUOUS
 10
328.4189186245389
 20
209.2401704536217
 30
0.0
 40
2.000000000000256
 50
16.60154959904201
 51
90.0
  0
LINE
  5
2FE
  8
LAYER_01
  6
CONTINUOUS
 10
328.4189186245389
 20
211.2401704536219
 30
0.0
 11
321.8353264895388
 21
211.2401704536219
 31
0.0
  0
ARC
  5
2FF
  8
LAYER_01
  6
CONTINUOUS
 10
321.8353264895388
 20
209.2401704536216
 30
0.0
 40
2.000000000000341
 50
90.0
 51
163.3984504009569
  0
ARC
  5
300
  8
LAYER_01
  6
CONTINUOUS
 10
315.1271225570387
 20
211.2401704536214
 30
0.0
 40
5.000000000000314
 50
106.6015495990106
 51
343.3984504009932
  0
ARC
  5
301
  8
LAYER_01
  6
CONTINUOUS
 10
579.5936113756528
 20
263.6173169767106
 30
0.0
 40
2.000000000018133
 50
67.19228137263211
 51
140.5907317742052
  0
LINE
  5
302
  8
LAYER_01
  6
CONTINUOUS
 10
578.0483495982191
 20
264.8870279829144
 30
0.0
 11
575.1384309074192
 21
261.3456031182142
 31
0.0
  0
ARC
  5
303
  8
LAYER_01
  6
CONTINUOUS
 10
576.6836926848508
 20
260.0758921120117
 30
0.0
 40
2.000000000015759
 50
140.5907317741957
 51
213.9891821742256
  0
ARC
  5
304
  8
LAYER_01
  6
CONTINUOUS
 10
570.879690724949
 20
256.162637552221
 30
0.0
 40
5.000000000003218
 50
157.192281373342
 51
33.98918217499525
  0
ARC
  5
305
  8
LAYER_01
  6
CONTINUOUS
 10
564.4270141527448
 20
258.876115957229
 30
0.0
 40
1.999999999990737
 50
337.1922813731996
 51
50.59073177420109
  0
LINE
  5
306
  8
LAYER_01
  6
CONTINUOUS
 10
565.6967251589314
 20
260.4213777346414
 30
0.0
 11
562.1553002942312
 21
263.3312964255413
 31
0.0
  0
ARC
  5
307
  8
LAYER_01
  6
CONTINUOUS
 10
560.8855892880656
 20
261.7860346481544
 30
0.0
 40
1.999999999957694
 50
50.59073177419886
 51
123.9891821766221
  0
ARC
  5
308
  8
LAYER_01
  6
CONTINUOUS
 10
556.9723347282484
 20
267.5900366079362
 30
0.0
 40
4.999999999976841
 50
67.19228137334056
 51
303.9891821750608
  0
ARC
  5
309
  8
LAYER_01
  6
CONTINUOUS
 10
559.685813133246
 20
274.0427131801159
 30
0.0
 40
1.999999999990722
 50
247.1922813732063
 51
320.5907317741965
  0
LINE
  5
30A
  8
LAYER_01
  6
CONTINUOUS
 10
561.2310749106583
 20
272.7730021739293
 30
0.0
 11
564.1409936014562
 21
276.3144270387266
 31
0.0
  0
ARC
  5
30B
  8
LAYER_01
  6
CONTINUOUS
 10
562.5957318240269
 20
277.5841380449318
 30
0.0
 40
2.000000000015626
 50
320.5907317740977
 51
33.98918217423054
  0
ARC
  5
30C
  8
LAYER_01
  6
CONTINUOUS
 10
568.3997337839288
 20
281.4973926047221
 30
0.0
 40
5.000000000003223
 50
337.1922813733455
 51
213.9891821749887
  0
ARC
  5
30D
  8
LAYER_01
  6
CONTINUOUS
 10
574.8524103561327
 20
278.7839141997147
 30
0.0
 40
1.999999999990737
 50
157.1922813731996
 51
230.5907317742011
  0
LINE
  5
30E
  8
LAYER_01
  6
CONTINUOUS
 10
573.5826993499462
 20
277.2386524223023
 30
0.0
 11
577.1241242147463
 21
274.3287337314023
 31
0.0
  0
ARC
  5
30F
  8
LAYER_01
  6
CONTINUOUS
 10
578.3938352209487
 20
275.8739955088338
 30
0.0
 40
2.000000000015643
 50
230.5907317741972
 51
303.9891821742305
  0
ARC
  5
310
  8
LAYER_01
  6
CONTINUOUS
 10
582.3070897807457
 20
270.0699935489218
 30
0.0
 40
5.000000000015402
 50
247.1922813727026
 51
123.9891821749891
  0
ARC
  5
311
  8
0
  6
CONTINUOUS
 10
558.3089482626398
 20
265.8019667931221
 30
0.0
 40
44.61306618937014
 50
291.6891956919986
 51
111.8664454966014
  0
LINE
  5
312
  8
0
  6
CONTINUOUS
 10
541.6930641003831
 20
307.205324970009
 30
0.0
 11
531.3924054805804
 21
377.7934078365329
 31
0.0
  0
LINE
  5
313
  8
0
  6
CONTINUOUS
 10
531.3924054805804
 20
377.7934078365329
 30
0.0
 11
527.3945133392349
 21
412.0434735208787
 31
0.0
  0
LINE
  5
314
  8
0
  6
CONTINUOUS
 10
527.3945133392349
 20
412.0434735208787
 30
0.0
 11
524.1191636030248
 21
445.5660943179982
 31
0.0
  0
LINE
  5
315
  8
0
  6
CONTINUOUS
 10
524.1191636030248
 20
445.5660943179982
 30
0.0
 11
521.5320463482858
 21
478.3376965910495
 31
0.0
  0
LINE
  5
316
  8
0
  6
CONTINUOUS
 10
521.5320463482858
 20
478.3376965910495
 30
0.0
 11
519.6278344099073
 21
509.7702656179567
 31
0.0
  0
LINE
  5
317
  8
0
  6
CONTINUOUS
 10
519.6278344099073
 20
509.7702656179567
 30
0.0
 11
518.3218929175898
 21
540.433312603778
 31
0.0
  0
LINE
  5
318
  8
0
  6
CONTINUOUS
 10
518.3218929175898
 20
540.433312603778
 30
0.0
 11
517.5817112628961
 21
570.3044988453626
 31
0.0
  0
LINE
  5
319
  8
0
  6
CONTINUOUS
 10
517.5817112628961
 20
570.3044988453626
 30
0.0
 11
517.374786287978
 21
599.3614832563244
 31
0.0
  0
LINE
  5
31A
  8
0
  6
CONTINUOUS
 10
517.374786287978
 20
599.3614832563244
 30
0.0
 11
517.6795932654888
 21
628.148984932898
 31
0.0
  0
LINE
  5
31B
  8
0
  6
CONTINUOUS
 10
517.6795932654888
 20
628.148984932898
 30
0.0
 11
518.471262157396
 21
656.0417104750941
 31
0.0
  0
LINE
  5
31C
  8
0
  6
CONTINUOUS
 10
518.471262157396
 20
656.0417104750941
 30
0.0
 11
519.7152557973402
 21
683.0159265786133
 31
0.0
  0
LINE
  5
31D
  8
0
  6
CONTINUOUS
 10
519.7152557973402
 20
683.0159265786133
 30
0.0
 11
521.3770370189684
 21
709.0478975563999
 31
0.0
  0
LINE
  5
31E
  8
0
  6
CONTINUOUS
 10
521.3770370189684
 20
709.0478975563999
 30
0.0
 11
523.4220649306332
 21
734.1138933092332
 31
0.0
  0
LINE
  5
31F
  8
0
  6
CONTINUOUS
 10
523.4220649306332
 20
734.1138933092332
 30
0.0
 11
525.8158098165532
 21
758.1901613861139
 31
0.0
  0
LINE
  5
320
  8
0
  6
CONTINUOUS
 10
525.8158098165532
 20
758.1901613861139
 30
0.0
 11
528.5237270597994
 21
781.2529567867682
 31
0.0
  0
LINE
  5
321
  8
0
  6
CONTINUOUS
 10
528.5237270597994
 20
781.2529567867682
 30
0.0
 11
531.5112832192915
 21
803.2785717636186
 31
0.0
  0
LINE
  5
322
  8
0
  6
CONTINUOUS
 10
531.5112832192915
 20
803.2785717636186
 30
0.0
 11
534.7439448539791
 21
824.243268767008
 31
0.0
  0
LINE
  5
323
  8
0
  6
CONTINUOUS
 10
534.7439448539791
 20
824.243268767008
 30
0.0
 11
538.1871673469051
 21
844.1232804447081
 31
0.0
  0
LINE
  5
324
  8
0
  6
CONTINUOUS
 10
538.1871673469051
 20
844.1232804447081
 30
0.0
 11
541.806417257026
 21
862.8948841482327
 31
0.0
  0
LINE
  5
325
  8
0
  6
CONTINUOUS
 10
541.806417257026
 20
862.8948841482327
 30
0.0
 11
545.5671611432556
 21
880.5343423276936
 31
0.0
  0
LINE
  5
326
  8
0
  6
CONTINUOUS
 10
545.5671611432556
 20
880.5343423276936
 30
0.0
 11
549.4348581139668
 21
897.0179472357249
 31
0.0
  0
LINE
  5
327
  8
0
  6
CONTINUOUS
 10
549.4348581139668
 20
897.0179472357249
 30
0.0
 11
553.3749710027698
 21
912.3219166189256
 31
0.0
  0
LINE
  5
328
  8
0
  6
CONTINUOUS
 10
553.3749710027698
 20
912.3219166189256
 30
0.0
 11
557.0208586011644
 21
925.2940330892598
 31
0.0
  0
LINE
  5
329
  8
0
  6
CONTINUOUS
 10
557.0208586011644
 20
925.2940330892598
 30
0.0
 11
560.6719755758251
 21
937.2367177397105
 31
0.0
  0
LINE
  5
32A
  8
0
  6
CONTINUOUS
 10
560.6719755758251
 20
937.2367177397105
 30
0.0
 11
564.3017168347329
 21
948.1316719442354
 31
0.0
  0
LINE
  5
32B
  8
0
  6
CONTINUOUS
 10
564.3017168347329
 20
948.1316719442354
 30
0.0
 11
567.8834810112311
 21
957.9606268793373
 31
0.0
  0
LINE
  5
32C
  8
0
  6
CONTINUOUS
 10
567.8834810112311
 20
957.9606268793373
 30
0.0
 11
569.5937417177274
 21
962.3507025650804
 31
0.0
  0
LINE
  5
32D
  8
0
  6
CONTINUOUS
 10
569.5937417177274
 20
962.3507025650804
 30
0.0
 11
571.3906655744246
 21
966.7052839189525
 31
0.0
  0
LINE
  5
32E
  8
0
  6
CONTINUOUS
 10
571.3906655744246
 20
966.7052839189525
 30
0.0
 11
574.7966679935007
 21
974.3474040418776
 31
0.0
  0
LINE
  5
32F
  8
0
  6
CONTINUOUS
 10
574.7966679935007
 20
974.3474040418776
 30
0.0
 11
620.6248040266605
 21
1044.492672453601
 31
0.0
  0
LINE
  5
330
  8
0
  6
CONTINUOUS
 10
620.6248040266605
 20
1044.492672453601
 30
0.0
 11
639.899048200687
 21
1072.026087744494
 31
0.0
  0
LINE
  5
331
  8
0
  6
CONTINUOUS
 10
639.899048200687
 20
1072.026087744494
 30
0.0
 11
643.7457049003175
 21
1077.678384269968
 31
0.0
  0
LINE
  5
332
  8
0
  6
CONTINUOUS
 10
643.7457049003175
 20
1077.678384269968
 30
0.0
 11
645.5864407939649
 21
1080.565251771827
 31
0.0
  0
LINE
  5
333
  8
0
  6
CONTINUOUS
 10
645.5864407939649
 20
1080.565251771827
 30
0.0
 11
647.3414799105007
 21
1083.497423597619
 31
0.0
  0
LINE
  5
334
  8
0
  6
CONTINUOUS
 10
647.3414799105007
 20
1083.497423597619
 30
0.0
 11
648.1796830664921
 21
1084.981629451797
 31
0.0
  0
LINE
  5
335
  8
0
  6
CONTINUOUS
 10
648.1796830664921
 20
1084.981629451797
 30
0.0
 11
648.9878458951745
 21
1086.478518370729
 31
0.0
  0
LINE
  5
336
  8
0
  6
CONTINUOUS
 10
648.9878458951745
 20
1086.478518370729
 30
0.0
 11
649.7630963522038
 21
1087.988542682337
 31
0.0
  0
LINE
  5
337
  8
0
  6
CONTINUOUS
 10
649.7630963522038
 20
1087.988542682337
 30
0.0
 11
650.5025623932364
 21
1089.512154714545
 31
0.0
  0
LINE
  5
338
  8
0
  6
CONTINUOUS
 10
650.5025623932364
 20
1089.512154714545
 30
0.0
 11
651.2033719739286
 21
1091.049806795276
 31
0.0
  0
LINE
  5
339
  8
0
  6
CONTINUOUS
 10
651.2033719739286
 20
1091.049806795276
 30
0.0
 11
651.8626530499365
 21
1092.601951252454
 31
0.0
  0
LINE
  5
33A
  8
0
  6
CONTINUOUS
 10
651.8626530499365
 20
1092.601951252454
 30
0.0
 11
652.4775335769166
 21
1094.169040414002
 31
0.0
  0
LINE
  5
33B
  8
0
  6
CONTINUOUS
 10
652.4775335769166
 20
1094.169040414002
 30
0.0
 11
653.045141510525
 21
1095.751526607844
 31
0.0
  0
LINE
  5
33C
  8
0
  6
CONTINUOUS
 10
653.045141510525
 20
1095.751526607844
 30
0.0
 11
653.5626048064181
 21
1097.349862161903
 31
0.0
  0
LINE
  5
33D
  8
0
  6
CONTINUOUS
 10
653.5626048064181
 20
1097.349862161903
 30
0.0
 11
654.0270514202517
 21
1098.964499404102
 31
0.0
  0
LINE
  5
33E
  8
0
  6
CONTINUOUS
 10
654.0270514202517
 20
1098.964499404102
 30
0.0
 11
654.2384959575389
 21
1099.77807251073
 31
0.0
  0
LINE
  5
33F
  8
0
  6
CONTINUOUS
 10
654.2384959575389
 20
1099.77807251073
 30
0.0
 11
654.4356093076825
 21
1100.595890662365
 31
0.0
  0
LINE
  5
340
  8
0
  6
CONTINUOUS
 10
654.4356093076825
 20
1100.595890662365
 30
0.0
 11
654.6180324651394
 21
1101.418010399997
 31
0.0
  0
LINE
  5
341
  8
0
  6
CONTINUOUS
 10
654.6180324651394
 20
1101.418010399997
 30
0.0
 11
654.7854064243667
 21
1102.244488264615
 31
0.0
  0
LINE
  5
342
  8
0
  6
CONTINUOUS
 10
654.7854064243667
 20
1102.244488264615
 30
0.0
 11
654.9373721798213
 21
1103.075380797211
 31
0.0
  0
LINE
  5
343
  8
0
  6
CONTINUOUS
 10
654.9373721798213
 20
1103.075380797211
 30
0.0
 11
655.0735707259603
 21
1103.910744538776
 31
0.0
  0
LINE
  5
344
  8
0
  6
CONTINUOUS
 10
655.0735707259603
 20
1103.910744538776
 30
0.0
 11
655.1936430572408
 21
1104.750636030299
 31
0.0
  0
LINE
  5
345
  8
0
  6
CONTINUOUS
 10
655.1936430572408
 20
1104.750636030299
 30
0.0
 11
655.2972301681198
 21
1105.59511181277
 31
0.0
  0
LINE
  5
346
  8
0
  6
CONTINUOUS
 10
655.2972301681198
 20
1105.59511181277
 30
0.0
 11
655.3839730530543
 21
1106.444228427182
 31
0.0
  0
LINE
  5
347
  8
0
  6
CONTINUOUS
 10
655.3839730530543
 20
1106.444228427182
 30
0.0
 11
655.4535127065013
 21
1107.298042414523
 31
0.0
  0
LINE
  5
348
  8
0
  6
CONTINUOUS
 10
655.4535127065013
 20
1107.298042414523
 30
0.0
 11
655.505490122918
 21
1108.156610315784
 31
0.0
  0
LINE
  5
349
  8
0
  6
CONTINUOUS
 10
655.505490122918
 20
1108.156610315784
 30
0.0
 11
655.5395462967612
 21
1109.019988671955
 31
0.0
  0
LINE
  5
34A
  8
0
  6
CONTINUOUS
 10
655.5395462967612
 20
1109.019988671955
 30
0.0
 11
655.555322222488
 21
1109.888234024028
 31
0.0
  0
LINE
  5
34B
  8
0
  6
CONTINUOUS
 10
655.555322222488
 20
1109.888234024028
 30
0.0
 11
655.5524588945556
 21
1110.761402912993
 31
0.0
  0
LINE
  5
34C
  8
0
  6
CONTINUOUS
 10
655.5524588945556
 20
1110.761402912993
 30
0.0
 11
655.5305973074207
 21
1111.639551879839
 31
0.0
  0
LINE
  5
34D
  8
0
  6
CONTINUOUS
 10
655.5305973074207
 20
1111.639551879839
 30
0.0
 11
655.4893784555408
 21
1112.522737465557
 31
0.0
  0
LINE
  5
34E
  8
0
  6
CONTINUOUS
 10
655.4893784555408
 20
1112.522737465557
 30
0.0
 11
655.4284433333725
 21
1113.411016211139
 31
0.0
  0
LINE
  5
34F
  8
0
  6
CONTINUOUS
 10
655.4284433333725
 20
1113.411016211139
 30
0.0
 11
655.3474329353731
 21
1114.304444657573
 31
0.0
  0
LINE
  5
350
  8
0
  6
CONTINUOUS
 10
655.3474329353731
 20
1114.304444657573
 30
0.0
 11
655.2459882559996
 21
1115.203079345851
 31
0.0
  0
LINE
  5
351
  8
0
  6
CONTINUOUS
 10
655.2459882559996
 20
1115.203079345851
 30
0.0
 11
655.1237502897089
 21
1116.106976816963
 31
0.0
  0
ARC
  5
352
  8
0
  6
CONTINUOUS
 10
589.5966747037388
 20
1096.714275162722
 30
0.0
 40
68.33648009884521
 50
16.48609042570004
 51
196.4860904258001
  0
LINE
  5
353
  8
0
  6
CONTINUOUS
 10
524.0695991178026
 20
1077.321573508366
 30
0.0
 11
524.2804133027357
 21
1077.038854398992
 31
0.0
  0
LINE
  5
354
  8
0
  6
CONTINUOUS
 10
524.2804133027357
 20
1077.038854398992
 30
0.0
 11
524.4836805376194
 21
1076.75589434951
 31
0.0
  0
LINE
  5
355
  8
0
  6
CONTINUOUS
 10
524.4836805376194
 20
1076.75589434951
 30
0.0
 11
524.6794764777657
 21
1076.472693566416
 31
0.0
  0
LINE
  5
356
  8
0
  6
CONTINUOUS
 10
524.6794764777657
 20
1076.472693566416
 30
0.0
 11
524.8678767784866
 21
1076.189252256206
 31
0.0
  0
LINE
  5
357
  8
0
  6
CONTINUOUS
 10
524.8678767784866
 20
1076.189252256206
 30
0.0
 11
525.0489570950942
 21
1075.905570625377
 31
0.0
  0
LINE
  5
358
  8
0
  6
CONTINUOUS
 10
525.0489570950942
 20
1075.905570625377
 30
0.0
 11
525.2227930829005
 21
1075.621648880427
 31
0.0
  0
LINE
  5
359
  8
0
  6
CONTINUOUS
 10
525.2227930829005
 20
1075.621648880427
 30
0.0
 11
525.3894603972176
 21
1075.337487227852
 31
0.0
  0
LINE
  5
35A
  8
0
  6
CONTINUOUS
 10
525.3894603972176
 20
1075.337487227852
 30
0.0
 11
525.5490346933577
 21
1075.053085874148
 31
0.0
  0
LINE
  5
35B
  8
0
  6
CONTINUOUS
 10
525.5490346933577
 20
1075.053085874148
 30
0.0
 11
525.7015916266329
 21
1074.768445025813
 31
0.0
  0
LINE
  5
35C
  8
0
  6
CONTINUOUS
 10
525.7015916266329
 20
1074.768445025813
 30
0.0
 11
525.8472068523552
 21
1074.483564889343
 31
0.0
  0
LINE
  5
35D
  8
0
  6
CONTINUOUS
 10
525.8472068523552
 20
1074.483564889343
 30
0.0
 11
525.9859560258365
 21
1074.198445671235
 31
0.0
  0
LINE
  5
35E
  8
0
  6
CONTINUOUS
 10
525.9859560258365
 20
1074.198445671235
 30
0.0
 11
526.1179148023889
 21
1073.913087577986
 31
0.0
  0
LINE
  5
35F
  8
0
  6
CONTINUOUS
 10
526.1179148023889
 20
1073.913087577986
 30
0.0
 11
526.2431588373249
 21
1073.627490816093
 31
0.0
  0
LINE
  5
360
  8
0
  6
CONTINUOUS
 10
526.2431588373249
 20
1073.627490816093
 30
0.0
 11
526.3617637859561
 21
1073.341655592052
 31
0.0
  0
LINE
  5
361
  8
0
  6
CONTINUOUS
 10
526.3617637859561
 20
1073.341655592052
 30
0.0
 11
526.4738053035948
 21
1073.05558211236
 31
0.0
  0
LINE
  5
362
  8
0
  6
CONTINUOUS
 10
526.4738053035948
 20
1073.05558211236
 30
0.0
 11
526.579359045553
 21
1072.769270583514
 31
0.0
  0
LINE
  5
363
  8
0
  6
CONTINUOUS
 10
526.579359045553
 20
1072.769270583514
 30
0.0
 11
526.6785006671429
 21
1072.48272121201
 31
0.0
  0
LINE
  5
364
  8
0
  6
CONTINUOUS
 10
526.6785006671429
 20
1072.48272121201
 30
0.0
 11
526.7713058236764
 21
1072.195934204346
 31
0.0
  0
LINE
  5
365
  8
0
  6
CONTINUOUS
 10
526.7713058236764
 20
1072.195934204346
 30
0.0
 11
526.8578501704656
 21
1071.908909767018
 31
0.0
  0
LINE
  5
366
  8
0
  6
CONTINUOUS
 10
526.8578501704656
 20
1071.908909767018
 30
0.0
 11
526.9382093628226
 21
1071.621648106523
 31
0.0
  0
LINE
  5
367
  8
0
  6
CONTINUOUS
 10
526.9382093628226
 20
1071.621648106523
 30
0.0
 11
527.0124590560596
 21
1071.334149429358
 31
0.0
  0
LINE
  5
368
  8
0
  6
CONTINUOUS
 10
527.0124590560596
 20
1071.334149429358
 30
0.0
 11
527.0806749054886
 21
1071.04641394202
 31
0.0
  0
LINE
  5
369
  8
0
  6
CONTINUOUS
 10
527.0806749054886
 20
1071.04641394202
 30
0.0
 11
527.1429325664216
 21
1070.758441851004
 31
0.0
  0
LINE
  5
36A
  8
0
  6
CONTINUOUS
 10
527.1429325664216
 20
1070.758441851004
 30
0.0
 11
527.1993076941707
 21
1070.470233362809
 31
0.0
  0
LINE
  5
36B
  8
0
  6
CONTINUOUS
 10
527.1993076941707
 20
1070.470233362809
 30
0.0
 11
527.2498759440481
 21
1070.181788683931
 31
0.0
  0
LINE
  5
36C
  8
0
  6
CONTINUOUS
 10
527.2498759440481
 20
1070.181788683931
 30
0.0
 11
527.2947129713656
 21
1069.893108020866
 31
0.0
  0
LINE
  5
36D
  8
0
  6
CONTINUOUS
 10
527.2947129713656
 20
1069.893108020866
 30
0.0
 11
527.3338944314355
 21
1069.604191580111
 31
0.0
  0
LINE
  5
36E
  8
0
  6
CONTINUOUS
 10
527.3338944314355
 20
1069.604191580111
 30
0.0
 11
527.3674959795699
 21
1069.315039568164
 31
0.0
  0
LINE
  5
36F
  8
0
  6
CONTINUOUS
 10
527.3674959795699
 20
1069.315039568164
 30
0.0
 11
527.3955932710808
 21
1069.025652191521
 31
0.0
  0
LINE
  5
370
  8
0
  6
CONTINUOUS
 10
527.3955932710808
 20
1069.025652191521
 30
0.0
 11
527.4182619612802
 21
1068.736029656678
 31
0.0
  0
LINE
  5
371
  8
0
  6
CONTINUOUS
 10
527.4182619612802
 20
1068.736029656678
 30
0.0
 11
527.4355777054805
 21
1068.446172170132
 31
0.0
  0
LINE
  5
372
  8
0
  6
CONTINUOUS
 10
527.4355777054805
 20
1068.446172170132
 30
0.0
 11
527.447616158993
 21
1068.156079938381
 31
0.0
  0
LINE
  5
373
  8
0
  6
CONTINUOUS
 10
527.447616158993
 20
1068.156079938381
 30
0.0
 11
527.4544529771307
 21
1067.865753167921
 31
0.0
  0
LINE
  5
374
  8
0
  6
CONTINUOUS
 10
527.4544529771307
 20
1067.865753167921
 30
0.0
 11
527.4561638152052
 21
1067.575192065249
 31
0.0
  0
LINE
  5
375
  8
0
  6
CONTINUOUS
 10
527.4561638152052
 20
1067.575192065249
 30
0.0
 11
527.4445101724131
 21
1066.993367689254
 31
0.0
  0
LINE
  5
376
  8
0
  6
CONTINUOUS
 10
527.4445101724131
 20
1066.993367689254
 30
0.0
 11
527.4132604731135
 21
1066.410608462372
 31
0.0
  0
LINE
  5
377
  8
0
  6
CONTINUOUS
 10
527.4132604731135
 20
1066.410608462372
 30
0.0
 11
527.3630199598028
 21
1065.826916036576
 31
0.0
  0
LINE
  5
378
  8
0
  6
CONTINUOUS
 10
527.3630199598028
 20
1065.826916036576
 30
0.0
 11
527.2943938749777
 21
1065.242292063841
 31
0.0
  0
LINE
  5
379
  8
0
  6
CONTINUOUS
 10
527.2943938749777
 20
1065.242292063841
 30
0.0
 11
527.2079874611348
 21
1064.65673819614
 31
0.0
  0
LINE
  5
37A
  8
0
  6
CONTINUOUS
 10
527.2079874611348
 20
1064.65673819614
 30
0.0
 11
527.1044059607707
 21
1064.070256085448
 31
0.0
  0
LINE
  5
37B
  8
0
  6
CONTINUOUS
 10
527.1044059607707
 20
1064.070256085448
 30
0.0
 11
526.9842546163821
 21
1063.482847383739
 31
0.0
  0
LINE
  5
37C
  8
0
  6
CONTINUOUS
 10
526.9842546163821
 20
1063.482847383739
 30
0.0
 11
526.8481386704656
 21
1062.894513742988
 31
0.0
  0
LINE
  5
37D
  8
0
  6
CONTINUOUS
 10
526.8481386704656
 20
1062.894513742988
 30
0.0
 11
526.6966633655176
 21
1062.305256815168
 31
0.0
  0
LINE
  5
37E
  8
0
  6
CONTINUOUS
 10
526.6966633655176
 20
1062.305256815168
 30
0.0
 11
526.5304339440349
 21
1061.715078252253
 31
0.0
  0
LINE
  5
37F
  8
0
  6
CONTINUOUS
 10
526.5304339440349
 20
1061.715078252253
 30
0.0
 11
526.3500556485137
 21
1061.123979706218
 31
0.0
  0
LINE
  5
380
  8
0
  6
CONTINUOUS
 10
526.3500556485137
 20
1061.123979706218
 30
0.0
 11
526.1561337214512
 21
1060.531962829037
 31
0.0
  0
LINE
  5
381
  8
0
  6
CONTINUOUS
 10
526.1561337214512
 20
1060.531962829037
 30
0.0
 11
525.9492734053435
 21
1059.939029272684
 31
0.0
  0
LINE
  5
382
  8
0
  6
CONTINUOUS
 10
525.9492734053435
 20
1059.939029272684
 30
0.0
 11
525.4991585759799
 21
1058.750418730359
 31
0.0
  0
LINE
  5
383
  8
0
  6
CONTINUOUS
 10
525.4991585759799
 20
1058.750418730359
 30
0.0
 11
525.0045531003954
 21
1057.558161295035
 31
0.0
  0
LINE
  5
384
  8
0
  6
CONTINUOUS
 10
525.0045531003954
 20
1057.558161295035
 30
0.0
 11
524.470298918563
 21
1056.362270182507
 31
0.0
  0
LINE
  5
385
  8
0
  6
CONTINUOUS
 10
524.470298918563
 20
1056.362270182507
 30
0.0
 11
523.9012379704554
 21
1055.162758608568
 31
0.0
  0
LINE
  5
386
  8
0
  6
CONTINUOUS
 10
523.9012379704554
 20
1055.162758608568
 30
0.0
 11
523.3022121960455
 21
1053.95963978901
 31
0.0
  0
LINE
  5
387
  8
0
  6
CONTINUOUS
 10
523.3022121960455
 20
1053.95963978901
 30
0.0
 11
518.0123050506185
 21
1044.206414285491
 31
0.0
  0
LINE
  5
388
  8
0
  6
CONTINUOUS
 10
518.0123050506185
 20
1044.206414285491
 30
0.0
 11
516.7291157993347
 21
1041.73296055896
 31
0.0
  0
LINE
  5
389
  8
0
  6
CONTINUOUS
 10
516.7291157993347
 20
1041.73296055896
 30
0.0
 11
516.120044973804
 21
1040.49103427996
 31
0.0
  0
LINE
  5
38A
  8
0
  6
CONTINUOUS
 10
516.120044973804
 20
1040.49103427996
 30
0.0
 11
515.5391126016449
 21
1039.245659344861
 31
0.0
  0
LINE
  5
38B
  8
0
  6
CONTINUOUS
 10
515.5391126016449
 20
1039.245659344861
 30
0.0
 11
514.8294318191583
 21
1037.61851028242
 31
0.0
  0
LINE
  5
38C
  8
0
  6
CONTINUOUS
 10
514.8294318191583
 20
1037.61851028242
 30
0.0
 11
514.1688565494885
 21
1035.990062109397
 31
0.0
  0
LINE
  5
38D
  8
0
  6
CONTINUOUS
 10
514.1688565494885
 20
1035.990062109397
 30
0.0
 11
513.5504962670927
 21
1034.364848606444
 31
0.0
  0
LINE
  5
38E
  8
0
  6
CONTINUOUS
 10
513.5504962670927
 20
1034.364848606444
 30
0.0
 11
509.8251897883987
 21
1023.459762422303
 31
0.0
  0
LINE
  5
38F
  8
0
  6
CONTINUOUS
 10
509.8251897883987
 20
1023.459762422303
 30
0.0
 11
509.2964904846541
 21
1022.0236423833
 31
0.0
  0
LINE
  5
390
  8
0
  6
CONTINUOUS
 10
509.2964904846541
 20
1022.0236423833
 30
0.0
 11
508.7479914382984
 21
1020.631561040217
 31
0.0
  0
LINE
  5
391
  8
0
  6
CONTINUOUS
 10
508.7479914382984
 20
1020.631561040217
 30
0.0
 11
508.1728021237887
 21
1019.288052173701
 31
0.0
  0
LINE
  5
392
  8
0
  6
CONTINUOUS
 10
508.1728021237887
 20
1019.288052173701
 30
0.0
 11
507.873045326744
 21
1018.63592922561
 31
0.0
  0
LINE
  5
393
  8
0
  6
CONTINUOUS
 10
507.873045326744
 20
1018.63592922561
 30
0.0
 11
507.5640320155822
 21
1017.997649564404
 31
0.0
  0
LINE
  5
394
  8
0
  6
CONTINUOUS
 10
507.5640320155822
 20
1017.997649564404
 30
0.0
 11
507.2449008746105
 21
1017.373779912666
 31
0.0
  0
LINE
  5
395
  8
0
  6
CONTINUOUS
 10
507.2449008746105
 20
1017.373779912666
 30
0.0
 11
506.9147905881362
 21
1016.764886992976
 31
0.0
  0
LINE
  5
396
  8
0
  6
CONTINUOUS
 10
506.9147905881362
 20
1016.764886992976
 30
0.0
 11
506.5728398404663
 21
1016.171537527915
 31
0.0
  0
LINE
  5
397
  8
0
  6
CONTINUOUS
 10
506.5728398404663
 20
1016.171537527915
 30
0.0
 11
506.2181873159078
 21
1015.594298240065
 31
0.0
  0
LINE
  5
398
  8
0
  6
CONTINUOUS
 10
506.2181873159078
 20
1015.594298240065
 30
0.0
 11
498.359055806179
 21
1002.88375671035
 31
0.0
  0
LINE
  5
399
  8
0
  6
CONTINUOUS
 10
498.359055806179
 20
1002.88375671035
 30
0.0
 11
490.8574677386265
 21
990.0777412217715
 31
0.0
  0
LINE
  5
39A
  8
0
  6
CONTINUOUS
 10
490.8574677386265
 20
990.0777412217715
 30
0.0
 11
483.7104305364531
 21
977.1837019656587
 31
0.0
  0
LINE
  5
39B
  8
0
  6
CONTINUOUS
 10
483.7104305364531
 20
977.1837019656587
 30
0.0
 11
476.9111588401745
 21
964.2036753289624
 31
0.0
  0
LINE
  5
39C
  8
0
  6
CONTINUOUS
 10
476.9111588401745
 20
964.2036753289624
 30
0.0
 11
470.4576699306195
 21
951.1475295515113
 31
0.0
  0
LINE
  5
39D
  8
0
  6
CONTINUOUS
 10
470.4576699306195
 20
951.1475295515113
 30
0.0
 11
464.3450551484021
 21
938.0210982404287
 31
0.0
  0
LINE
  5
39E
  8
0
  6
CONTINUOUS
 10
464.3450551484021
 20
938.0210982404287
 30
0.0
 11
458.5677749922023
 21
924.8294550525443
 31
0.0
  0
LINE
  5
39F
  8
0
  6
CONTINUOUS
 10
458.5677749922023
 20
924.8294550525443
 30
0.0
 11
453.1206925331286
 21
911.5786684762222
 31
0.0
  0
LINE
  5
3A0
  8
0
  6
CONTINUOUS
 10
453.1206925331286
 20
911.5786684762222
 30
0.0
 11
447.9986144873895
 21
898.2749212842737
 31
0.0
  0
LINE
  5
3A1
  8
0
  6
CONTINUOUS
 10
447.9986144873895
 20
898.2749212842737
 30
0.0
 11
443.1957195794297
 21
884.9238585563285
 31
0.0
  0
LINE
  5
3A2
  8
0
  6
CONTINUOUS
 10
443.1957195794297
 20
884.9238585563285
 30
0.0
 11
438.7060295357535
 21
871.5309909487205
 31
0.0
  0
LINE
  5
3A3
  8
0
  6
CONTINUOUS
 10
438.7060295357535
 20
871.5309909487205
 30
0.0
 11
434.523566082865
 21
858.1018291177841
 31
0.0
  0
LINE
  5
3A4
  8
0
  6
CONTINUOUS
 10
434.523566082865
 20
858.1018291177841
 30
0.0
 11
430.6422487852749
 21
844.6417647069452
 31
0.0
  0
LINE
  5
3A5
  8
0
  6
CONTINUOUS
 10
430.6422487852749
 20
844.6417647069452
 30
0.0
 11
427.055588559523
 21
831.1557133079982
 31
0.0
  0
LINE
  5
3A6
  8
0
  6
CONTINUOUS
 10
427.055588559523
 20
831.1557133079982
 30
0.0
 11
423.7569941601554
 21
817.6484714998292
 31
0.0
  0
LINE
  5
3A7
  8
0
  6
CONTINUOUS
 10
423.7569941601554
 20
817.6484714998292
 30
0.0
 11
420.7398743417187
 21
804.1248358613243
 31
0.0
  0
LINE
  5
3A8
  8
0
  6
CONTINUOUS
 10
420.7398743417187
 20
804.1248358613243
 30
0.0
 11
417.9975940033561
 21
790.5894668034257
 31
0.0
  0
LINE
  5
3A9
  8
0
  6
CONTINUOUS
 10
417.9975940033561
 20
790.5894668034257
 30
0.0
 11
415.5233426225413
 21
777.0464800650075
 31
0.0
  0
LINE
  5
3AA
  8
0
  6
CONTINUOUS
 10
415.5233426225413
 20
777.0464800650075
 30
0.0
 11
413.3102658213469
 21
763.4998552169986
 31
0.0
  0
LINE
  5
3AB
  8
0
  6
CONTINUOUS
 10
413.3102658213469
 20
763.4998552169986
 30
0.0
 11
411.3515092218456
 21
749.9535718303296
 31
0.0
  0
LINE
  5
3AC
  8
0
  6
CONTINUOUS
 10
411.3515092218456
 20
749.9535718303296
 30
0.0
 11
409.6402141574779
 21
736.4115134427559
 31
0.0
  0
LINE
  5
3AD
  8
0
  6
CONTINUOUS
 10
409.6402141574779
 20
736.4115134427559
 30
0.0
 11
408.1695048071918
 21
722.8771794596282
 31
0.0
  0
LINE
  5
3AE
  8
0
  6
CONTINUOUS
 10
408.1695048071918
 20
722.8771794596282
 30
0.0
 11
405.9223228101214
 21
695.8452981954201
 31
0.0
  0
LINE
  5
3AF
  8
0
  6
CONTINUOUS
 10
405.9223228101214
 20
695.8452981954201
 30
0.0
 11
404.5552164435834
 21
668.8839920503824
 31
0.0
  0
LINE
  5
3B0
  8
0
  6
CONTINUOUS
 10
404.5552164435834
 20
668.8839920503824
 30
0.0
 11
404.0146152822688
 21
642.0146731782384
 31
0.0
  0
LINE
  5
3B1
  8
0
  6
CONTINUOUS
 10
404.0146152822688
 20
642.0146731782384
 30
0.0
 11
404.2468528008681
 21
615.2614277535426
 31
0.0
  0
LINE
  5
3B2
  8
0
  6
CONTINUOUS
 10
404.2468528008681
 20
615.2614277535426
 30
0.0
 11
405.2001112061434
 21
588.6400060547016
 31
0.0
  0
LINE
  5
3B3
  8
0
  6
CONTINUOUS
 10
405.2001112061434
 20
588.6400060547016
 30
0.0
 11
406.8402569586657
 21
562.0934937863196
 31
0.0
  0
LINE
  5
3B4
  8
0
  6
CONTINUOUS
 10
406.8402569586657
 20
562.0934937863196
 30
0.0
 11
409.1543118887733
 21
535.6142279914638
 31
0.0
  0
LINE
  5
3B5
  8
0
  6
CONTINUOUS
 10
409.1543118887733
 20
535.6142279914638
 30
0.0
 11
412.133450768201
 21
509.2137468814053
 31
0.0
  0
LINE
  5
3B6
  8
0
  6
CONTINUOUS
 10
412.133450768201
 20
509.2137468814053
 30
0.0
 11
415.7677142582704
 21
482.9074581633297
 31
0.0
  0
LINE
  5
3B7
  8
0
  6
CONTINUOUS
 10
415.7677142582704
 20
482.9074581633297
 30
0.0
 11
420.0470046168984
 21
456.71142749621
 31
0.0
  0
LINE
  5
3B8
  8
0
  6
CONTINUOUS
 10
420.0470046168984
 20
456.71142749621
 30
0.0
 11
424.9618045987488
 21
430.6404828508228
 31
0.0
  0
LINE
  5
3B9
  8
0
  6
CONTINUOUS
 10
424.9618045987488
 20
430.6404828508228
 30
0.0
 11
430.5027740122149
 21
404.7091915820577
 31
0.0
  0
LINE
  5
3BA
  8
0
  6
CONTINUOUS
 10
430.5027740122149
 20
404.7091915820577
 30
0.0
 11
436.6607003839839
 21
378.9323162688997
 31
0.0
  0
LINE
  5
3BB
  8
0
  6
CONTINUOUS
 10
436.6607003839839
 20
378.9323162688997
 30
0.0
 11
443.4264681981546
 21
353.3246346667024
 31
0.0
  0
LINE
  5
3BC
  8
0
  6
CONTINUOUS
 10
443.4264681981546
 20
353.3246346667024
 30
0.0
 11
450.7912220501367
 21
327.9007900121856
 31
0.0
  0
LINE
  5
3BD
  8
0
  6
CONTINUOUS
 10
450.7912220501367
 20
327.9007900121856
 30
0.0
 11
458.7462157169876
 21
302.675394653837
 31
0.0
  0
LINE
  5
3BE
  8
0
  6
CONTINUOUS
 10
458.7462157169876
 20
302.675394653837
 30
0.0
 11
467.2829000833335
 21
277.6630704678095
 31
0.0
  0
LINE
  5
3BF
  8
0
  6
CONTINUOUS
 10
467.2829000833335
 20
277.6630704678095
 30
0.0
 11
476.3928844474153
 21
252.8784341404643
 31
0.0
  0
LINE
  5
3C0
  8
0
  6
CONTINUOUS
 10
476.3928844474153
 20
252.8784341404643
 30
0.0
 11
491.114846638671
 21
216.1604029608224
 31
0.0
  0
LINE
  5
3C1
  8
0
  6
CONTINUOUS
 10
491.114846638671
 20
216.1604029608224
 30
0.0
 11
506.6518633404129
 21
180.8197654860408
 31
0.0
  0
LINE
  5
3C2
  8
0
  6
CONTINUOUS
 10
506.6518633404129
 20
180.8197654860408
 30
0.0
 11
509.8496675212922
 21
175.5848445616318
 31
0.0
  0
LINE
  5
3C3
  8
0
  6
CONTINUOUS
 10
509.8496675212922
 20
175.5848445616318
 30
0.0
 11
513.2561571741821
 21
170.3337716732599
 31
0.0
  0
LINE
  5
3C4
  8
0
  6
CONTINUOUS
 10
513.2561571741821
 20
170.3337716732599
 30
0.0
 11
520.5376978470205
 21
159.6429219109959
 31
0.0
  0
LINE
  5
3C5
  8
0
  6
CONTINUOUS
 10
520.5376978470205
 20
159.6429219109959
 30
0.0
 11
528.1814952609828
 21
148.4667200119889
 31
0.0
  0
LINE
  5
3C6
  8
0
  6
CONTINUOUS
 10
528.1814952609828
 20
148.4667200119889
 30
0.0
 11
532.0408058402776
 21
142.6089569526889
 31
0.0
  0
LINE
  5
3C7
  8
0
  6
CONTINUOUS
 10
532.0408058402776
 20
142.6089569526889
 30
0.0
 11
535.872559318124
 21
136.5246697889797
 31
0.0
  0
LINE
  5
3C8
  8
0
  6
CONTINUOUS
 10
535.872559318124
 20
136.5246697889797
 30
0.0
 11
539.6373819322788
 21
130.1787964974549
 31
0.0
  0
LINE
  5
3C9
  8
0
  6
CONTINUOUS
 10
539.6373819322788
 20
130.1787964974549
 30
0.0
 11
543.2958999204988
 21
123.5362750547079
 31
0.0
  0
LINE
  5
3CA
  8
0
  6
CONTINUOUS
 10
543.2958999204988
 20
123.5362750547079
 30
0.0
 11
545.0729903791822
 21
120.0928143943108
 31
0.0
  0
LINE
  5
3CB
  8
0
  6
CONTINUOUS
 10
545.0729903791822
 20
120.0928143943108
 30
0.0
 11
546.808739520541
 21
116.5620434373297
 31
0.0
  0
LINE
  5
3CC
  8
0
  6
CONTINUOUS
 10
546.808739520541
 20
116.5620434373297
 30
0.0
 11
548.4982256242944
 21
112.9395794308398
 31
0.0
  0
LINE
  5
3CD
  8
0
  6
CONTINUOUS
 10
548.4982256242944
 20
112.9395794308398
 30
0.0
 11
550.1365269701621
 21
109.2210396219139
 31
0.0
  0
LINE
  5
3CE
  8
0
  6
CONTINUOUS
 10
550.1365269701621
 20
109.2210396219139
 30
0.0
 11
551.7187218378637
 21
105.4020412576269
 31
0.0
  0
LINE
  5
3CF
  8
0
  6
CONTINUOUS
 10
551.7187218378637
 20
105.4020412576269
 30
0.0
 11
553.239888507119
 21
101.4782015850528
 31
0.0
  0
LINE
  5
3D0
  8
0
  6
CONTINUOUS
 10
553.239888507119
 20
101.4782015850528
 30
0.0
 11
554.6951052576475
 21
97.44513785126583
 31
0.0
  0
LINE
  5
3D1
  8
0
  6
CONTINUOUS
 10
554.6951052576475
 20
97.44513785126583
 30
0.0
 11
556.0794503691687
 21
93.29846730333884
 31
0.0
  0
LINE
  5
3D2
  8
0
  6
CONTINUOUS
 10
556.0794503691687
 20
93.29846730333884
 30
0.0
 11
557.3880021214023
 21
89.03380718834683
 31
0.0
  0
LINE
  5
3D3
  8
0
  6
CONTINUOUS
 10
557.3880021214023
 20
89.03380718834683
 30
0.0
 11
558.615838794068
 21
84.64677475336384
 31
0.0
  0
LINE
  5
3D4
  8
0
  6
CONTINUOUS
 10
558.615838794068
 20
84.64677475336384
 30
0.0
 11
559.7580386668852
 21
80.13298724546485
 31
0.0
  0
LINE
  5
3D5
  8
0
  6
CONTINUOUS
 10
559.7580386668852
 20
80.13298724546485
 30
0.0
 11
560.8096800195735
 21
75.48806191172186
 31
0.0
  0
ARC
  5
3D6
  8
0
  6
CONTINUOUS
 10
623.5659823864388
 20
75.48806191172184
 30
0.0
 40
62.75630236686522
 50
180.0
 51
46.08293504740001
  0
LINE
  5
3D7
  8
0
  6
CONTINUOUS
 10
667.0947832992341
 20
120.6942227513202
 30
0.0
 11
621.4604775611894
 21
162.4200556665578
 31
0.0
  0
LINE
  5
3D8
  8
0
  6
CONTINUOUS
 10
621.4604775611894
 20
162.4200556665578
 30
0.0
 11
613.9027427141195
 21
169.6020279318029
 31
0.0
  0
LINE
  5
3D9
  8
0
  6
CONTINUOUS
 10
613.9027427141195
 20
169.6020279318029
 30
0.0
 11
610.3194325302002
 21
173.1662334763369
 31
0.0
  0
LINE
  5
3DA
  8
0
  6
CONTINUOUS
 10
610.3194325302002
 20
173.1662334763369
 30
0.0
 11
606.8053308133643
 21
176.7986331373359
 31
0.0
  0
LINE
  5
3DB
  8
0
  6
CONTINUOUS
 10
606.8053308133643
 20
176.7986331373359
 30
0.0
 11
603.7048806438471
 21
180.1425436745599
 31
0.0
  0
LINE
  5
3DC
  8
0
  6
CONTINUOUS
 10
603.7048806438471
 20
180.1425436745599
 30
0.0
 11
600.6807952378546
 21
183.5556242853309
 31
0.0
  0
LINE
  5
3DD
  8
0
  6
CONTINUOUS
 10
600.6807952378546
 20
183.5556242853309
 30
0.0
 11
597.743707550237
 21
187.0408944974938
 31
0.0
  0
LINE
  5
3DE
  8
0
  6
CONTINUOUS
 10
597.743707550237
 20
187.0408944974938
 30
0.0
 11
594.8997686807664
 21
190.6026516348038
 31
0.0
  0
LINE
  5
3DF
  8
0
  6
CONTINUOUS
 10
594.8997686807664
 20
190.6026516348038
 30
0.0
 11
592.1157778421078
 21
194.2975812515178
 31
0.0
  0
LINE
  5
3E0
  8
0
  6
CONTINUOUS
 10
592.1157778421078
 20
194.2975812515178
 30
0.0
 11
589.4415469099398
 21
198.0725143343178
 31
0.0
  0
LINE
  5
3E1
  8
0
  6
CONTINUOUS
 10
589.4415469099398
 20
198.0725143343178
 30
0.0
 11
586.8038596822386
 21
202.0466812689108
 31
0.0
  0
LINE
  5
3E2
  8
0
  6
CONTINUOUS
 10
586.8038596822386
 20
202.0466812689108
 30
0.0
 11
584.2854256932302
 21
206.0980711370596
 31
0.0
  0
LINE
  5
3E3
  8
0
  6
CONTINUOUS
 10
584.2854256932302
 20
206.0980711370596
 30
0.0
 11
581.7763362974123
 21
210.4155699881906
 31
0.0
  0
LINE
  5
3E4
  8
0
  6
CONTINUOUS
 10
581.7763362974123
 20
210.4155699881906
 30
0.0
 11
579.4107003328057
 21
214.812061586967
 31
0.0
  0
LINE
  5
3E5
  8
0
  6
CONTINUOUS
 10
579.4107003328057
 20
214.812061586967
 30
0.0
 11
577.0584811288198
 21
219.5569440980755
 31
0.0
  0
LINE
  5
3E6
  8
0
  6
CONTINUOUS
 10
577.0584811288198
 20
219.5569440980755
 30
0.0
 11
574.7966679934842
 21
224.3474040419093
 31
0.0
  0
ARC
  5
3E7
  8
LAYER_01
  6
CONTINUOUS
 10
140.9417831693388
 20
1144.387882770421
 30
0.0
 40
2.000000000000412
 50
90.0
 51
163.3984504009532
  0
ARC
  5
3E8
  8
LAYER_01
  6
CONTINUOUS
 10
134.2335792368389
 20
1146.387882770422
 30
0.0
 40
5.000000000000227
 50
106.6015495990156
 51
343.3984504009817
  0
ARC
  5
3E9
  8
LAYER_01
  6
CONTINUOUS
 10
132.2335792368387
 20
1153.096086702922
 30
0.0
 40
2.000000000000142
 50
286.6015495990351
 51
0.0
  0
LINE
  5
3EA
  8
LAYER_01
  6
CONTINUOUS
 10
134.2335792368388
 20
1153.096086702922
 30
0.0
 11
134.2335792368388
 21
1157.679678837922
 31
0.0
  0
ARC
  5
3EB
  8
LAYER_01
  6
CONTINUOUS
 10
132.2335792368387
 20
1157.679678837922
 30
0.0
 40
2.000000000000142
 50
0.0
 51
73.39845040096486
  0
ARC
  5
3EC
  8
LAYER_01
  6
CONTINUOUS
 10
134.2335792368389
 20
1164.387882770422
 30
0.0
 40
5.000000000000148
 50
16.60154959901043
 51
253.3984504009859
  0
ARC
  5
3ED
  8
LAYER_01
  6
CONTINUOUS
 10
140.9417831693388
 20
1166.387882770422
 30
0.0
 40
2.000000000000455
 50
196.6015495990396
 51
270.0
  0
LINE
  5
3EE
  8
LAYER_01
  6
CONTINUOUS
 10
140.9417831693388
 20
1164.387882770422
 30
0.0
 11
147.5253753043388
 21
1164.387882770422
 31
0.0
  0
ARC
  5
3EF
  8
LAYER_01
  6
CONTINUOUS
 10
147.5253753043388
 20
1166.387882770422
 30
0.0
 40
2.000000000000227
 50
270.0
 51
343.3984504009653
  0
ARC
  5
3F0
  8
LAYER_01
  6
CONTINUOUS
 10
154.2335792368384
 20
1164.387882770421
 30
0.0
 40
4.999999999999901
 50
286.6015495990186
 51
163.3984504009806
  0
ARC
  5
3F1
  8
LAYER_01
  6
CONTINUOUS
 10
156.233579236839
 20
1157.679678837922
 30
0.0
 40
2.000000000000313
 50
106.6015495990395
 51
180.0
  0
LINE
  5
3F2
  8
LAYER_01
  6
CONTINUOUS
 10
154.2335792368387
 20
1157.679678837922
 30
0.0
 11
154.2335792368388
 21
1153.096086702922
 31
0.0
  0
ARC
  5
3F3
  8
LAYER_01
  6
CONTINUOUS
 10
156.2335792368391
 20
1153.096086702922
 30
0.0
 40
2.000000000000313
 50
180.0
 51
253.3984504009589
  0
ARC
  5
3F4
  8
LAYER_01
  6
CONTINUOUS
 10
154.2335792368386
 20
1146.387882770423
 30
0.0
 40
5.000000000000206
 50
196.6015495990237
 51
73.39845040098368
  0
ARC
  5
3F5
  8
LAYER_01
  6
CONTINUOUS
 10
147.5253753043388
 20
1144.387882770421
 30
0.0
 40
2.000000000000455
 50
16.60154959905996
 51
90.0
  0
LINE
  5
3F6
  8
LAYER_01
  6
CONTINUOUS
 10
147.5253753043388
 20
1146.387882770421
 30
0.0
 11
140.9417831693388
 21
1146.387882770421
 31
0.0
  0
ARC
  5
3F7
  8
0
  6
CONTINUOUS
 10
265.6771225571388
 20
73.24017045362189
 30
0.0
 40
2.0
 50
180.0
 51
270.0
  0
LINE
  5
3F8
  8
0
  6
CONTINUOUS
 10
265.6771225571388
 20
71.24017045362189
 30
0.0
 11
355.6271225571388
 21
71.2401704536219
 31
0.0
  0
ARC
  5
3F9
  8
0
  6
CONTINUOUS
 10
355.6271225571388
 20
101.2401704536219
 30
0.0
 40
30.0
 50
270.0
 51
0.0
  0
LINE
  5
3FA
  8
0
  6
CONTINUOUS
 10
385.6271225571388
 20
101.2401704536219
 30
0.0
 11
385.6271225571388
 21
541.2401704536219
 31
0.0
  0
ARC
  5
3FB
  8
0
  6
CONTINUOUS
 10
355.6271225571388
 20
541.2401704536219
 30
0.0
 40
30.0
 50
0.0
 51
90.0
  0
LINE
  5
3FC
  8
0
  6
CONTINUOUS
 10
355.6271225571388
 20
571.2401704536219
 30
0.0
 11
265.6771225571388
 21
571.2401704536219
 31
0.0
  0
ARC
  5
3FD
  8
0
  6
CONTINUOUS
 10
265.6771225571388
 20
569.2401704536219
 30
0.0
 40
2.0
 50
90.0
 51
180.0
  0
LINE
  5
3FE
  8
0
  6
CONTINUOUS
 10
263.6771225571388
 20
569.2401704536219
 30
0.0
 11
263.6771225571388
 21
507.9483743861219
 31
0.0
  0
ARC
  5
3FF
  8
0
  6
CONTINUOUS
 10
265.6771225571391
 20
507.9483743861219
 30
0.0
 40
2.000000000000284
 50
180.0
 51
253.3984504009588
  0
ARC
  5
400
  8
0
  6
CONTINUOUS
 10
263.6771225571391
 20
501.2401704536218
 30
0.0
 40
5.000000000000638
 50
196.6015495990107
 51
73.39845040098992
  0
ARC
  5
401
  8
0
  6
CONTINUOUS
 10
256.9689186246388
 20
499.2401704536213
 30
0.0
 40
2.000000000000455
 50
16.60154959905169
 51
90.0
  0
LINE
  5
402
  8
0
  6
CONTINUOUS
 10
256.9689186246388
 20
501.2401704536217
 30
0.0
 11
254.0481898192388
 21
501.2401704536218
 31
0.0
  0
ARC
  5
403
  8
0
  6
CONTINUOUS
 10
254.0481898192388
 20
499.2401704536213
 30
0.0
 40
2.000000000000568
 50
90.0
 51
163.3984504009495
  0
ARC
  5
404
  8
0
  6
CONTINUOUS
 10
247.3399858867386
 20
501.2401704536218
 30
0.0
 40
5.000000000000353
 50
106.601549599011
 51
343.3984504009883
  0
ARC
  5
405
  8
0
  6
CONTINUOUS
 10
245.3399858867386
 20
507.9483743861219
 30
0.0
 40
2.000000000000256
 50
286.6015495990389
 51
0.0
  0
LINE
  5
406
  8
0
  6
CONTINUOUS
 10
247.3399858867388
 20
507.9483743861219
 30
0.0
 11
247.3399858867388
 21
569.2401704536219
 31
0.0
  0
ARC
  5
407
  8
0
  6
CONTINUOUS
 10
245.3399858867388
 20
569.2401704536219
 30
0.0
 40
2.0
 50
0.0
 51
90.0
  0
LINE
  5
408
  8
0
  6
CONTINUOUS
 10
245.3399858867388
 20
571.2401704536219
 30
0.0
 11
155.6271225571388
 21
571.2401704536219
 31
0.0
  0
ARC
  5
409
  8
0
  6
CONTINUOUS
 10
155.6271225571388
 20
541.2401704536219
 30
0.0
 40
30.0
 50
90.0
 51
180.0
  0
LINE
  5
40A
  8
0
  6
CONTINUOUS
 10
125.6271225571388
 20
541.2401704536219
 30
0.0
 11
125.6271225571388
 21
101.2401704536219
 31
0.0
  0
ARC
  5
40B
  8
0
  6
CONTINUOUS
 10
155.6271225571388
 20
101.2401704536219
 30
0.0
 40
30.0
 50
180.0
 51
270.0
  0
LINE
  5
40C
  8
0
  6
CONTINUOUS
 10
155.6271225571388
 20
71.2401704536219
 30
0.0
 11
245.3399858867388
 21
71.24017045362191
 31
0.0
  0
ARC
  5
40D
  8
0
  6
CONTINUOUS
 10
245.3399858867388
 20
73.24017045362189
 30
0.0
 40
1.999999999999972
 50
270.0
 51
0.0
  0
LINE
  5
40E
  8
0
  6
CONTINUOUS
 10
247.3399858867388
 20
73.24017045362189
 30
0.0
 11
247.339985886739
 21
134.5319665211218
 31
0.0
  0
ARC
  5
40F
  8
0
  6
CONTINUOUS
 10
245.3399858867382
 20
134.5319665211218
 30
0.0
 40
2.000000000000711
 50
0.0
 51
73.3984504009558
  0
ARC
  5
410
  8
0
  6
CONTINUOUS
 10
247.339985886739
 20
141.2401704536218
 30
0.0
 40
5.000000000000151
 50
16.6015495990196
 51
253.3984504009835
  0
ARC
  5
411
  8
0
  6
CONTINUOUS
 10
254.0481898192388
 20
143.2401704536227
 30
0.0
 40
2.000000000000568
 50
196.601549599042
 51
270.0
  0
LINE
  5
412
  8
0
  6
CONTINUOUS
 10
254.0481898192388
 20
141.2401704536221
 30
0.0
 11
256.9689186246388
 21
141.2401704536219
 31
0.0
  0
ARC
  5
413
  8
0
  6
CONTINUOUS
 10
256.9689186246388
 20
143.2401704536228
 30
0.0
 40
2.000000000000909
 50
270.0
 51
343.3984504009438
  0
ARC
  5
414
  8
0
  6
CONTINUOUS
 10
263.6771225571382
 20
141.2401704536207
 30
0.0
 40
4.999999999999492
 50
286.6015495990229
 51
163.3984504009792
  0
ARC
  5
415
  8
0
  6
CONTINUOUS
 10
265.677122557139
 20
134.5319665211218
 30
0.0
 40
2.000000000000341
 50
106.6015495990405
 51
180.0
  0
LINE
  5
416
  8
0
  6
CONTINUOUS
 10
263.6771225571387
 20
134.5319665211218
 30
0.0
 11
263.6771225571388
 21
73.24017045362189
 31
0.0
  0
ARC
  5
417
  8
LAYER_01
  6
CONTINUOUS
 10
815.3781842212393
 20
983.3952501265215
 30
0.0
 40
2.000000000000568
 50
106.6015495990416
 51
179.9999999999935
  0
LINE
  5
418
  8
LAYER_01
  6
CONTINUOUS
 10
813.3781842212387
 20
983.3952501265218
 30
0.0
 11
813.3781842212388
 21
978.8116579915218
 31
0.0
  0
ARC
  5
419
  8
LAYER_01
  6
CONTINUOUS
 10
815.378184221239
 20
978.8116579915218
 30
0.0
 40
2.000000000000227
 50
180.0
 51
253.3984504009619
  0
ARC
  5
41A
  8
LAYER_01
  6
CONTINUOUS
 10
813.378184221239
 20
972.1034540590215
 30
0.0
 40
5.000000000000887
 50
196.6015495990094
 51
73.3984504009894
  0
ARC
  5
41B
  8
LAYER_01
  6
CONTINUOUS
 10
806.6699802887388
 20
970.1034540590219
 30
0.0
 40
2.0
 50
16.60154959902967
 51
90.0
  0
LINE
  5
41C
  8
LAYER_01
  6
CONTINUOUS
 10
806.6699802887388
 20
972.1034540590219
 30
0.0
 11
800.0863881537388
 21
972.1034540590219
 31
0.0
  0
ARC
  5
41D
  8
LAYER_01
  6
CONTINUOUS
 10
800.0863881537388
 20
970.1034540590215
 30
0.0
 40
2.000000000000398
 50
90.0
 51
163.3984504009566
  0
ARC
  5
41E
  8
LAYER_01
  6
CONTINUOUS
 10
793.3781842212384
 20
972.1034540590216
 30
0.0
 40
5.00000000000031
 50
106.6015495990084
 51
343.3984504009888
  0
ARC
  5
41F
  8
LAYER_01
  6
CONTINUOUS
 10
791.3781842212384
 20
978.8116579915218
 30
0.0
 40
2.000000000000455
 50
286.6015495990434
 51
0.0
  0
LINE
  5
420
  8
LAYER_01
  6
CONTINUOUS
 10
793.3781842212388
 20
978.8116579915218
 30
0.0
 11
793.3781842212388
 21
983.3952501265219
 31
0.0
  0
ARC
  5
421
  8
LAYER_01
  6
CONTINUOUS
 10
791.3781842212387
 20
983.3952501265219
 30
0.0
 40
2.000000000000114
 50
0.0
 51
73.39845040096408
  0
ARC
  5
422
  8
LAYER_01
  6
CONTINUOUS
 10
793.3781842212386
 20
990.1034540590219
 30
0.0
 40
5.000000000000638
 50
16.6015495990101
 51
253.3984504009899
  0
ARC
  5
423
  8
LAYER_01
  6
CONTINUOUS
 10
800.0863881537389
 20
992.103454059022
 30
0.0
 40
2.000000000000341
 50
196.6015495990412
 51
269.9999999999968
  0
LINE
  5
424
  8
LAYER_01
  6
CONTINUOUS
 10
800.0863881537388
 20
990.1034540590217
 30
0.0
 11
806.6699802887388
 21
990.1034540590217
 31
0.0
  0
ARC
  5
425
  8
LAYER_01
  6
CONTINUOUS
 10
806.6699802887388
 20
992.1034540590217
 30
0.0
 40
2.0
 50
270.0
 51
343.3984504009704
  0
ARC
  5
426
  8
LAYER_01
  6
CONTINUOUS
 10
813.3781842212384
 20
990.1034540590217
 30
0.0
 40
5.000000000000081
 50
286.6015495990189
 51
163.3984504009839
  0
ARC
  5
427
  8
LAYER_01
  6
CONTINUOUS
 10
742.3331124282316
 20
286.0653825260273
 30
0.0
 40
1.99999999999117
 50
67.19228137320229
 51
140.590731774186
  0
LINE
  5
428
  8
LAYER_01
  6
CONTINUOUS
 10
740.7878506508192
 20
287.3350935322145
 30
0.0
 11
737.8779319599192
 21
283.7936686674144
 31
0.0
  0
ARC
  5
429
  8
LAYER_01
  6
CONTINUOUS
 10
739.4231937373063
 20
282.5239576612486
 30
0.0
 40
1.999999999958014
 50
140.590731774198
 51
213.9891821766167
  0
ARC
  5
42A
  8
LAYER_01
  6
CONTINUOUS
 10
733.6191917775242
 20
278.6107031014312
 30
0.0
 40
4.999999999976573
 50
157.1922813733387
 51
33.98918217505972
  0
ARC
  5
42B
  8
LAYER_01
  6
CONTINUOUS
 10
727.1665152053445
 20
281.3241815064288
 30
0.0
 40
1.999999999991014
 50
337.1922813732106
 51
50.59073177419915
  0
LINE
  5
42C
  8
LAYER_01
  6
CONTINUOUS
 10
728.4362262115312
 20
282.8694432838414
 30
0.0
 11
724.8948013467312
 21
285.7793619747414
 31
0.0
  0
ARC
  5
42D
  8
LAYER_01
  6
CONTINUOUS
 10
723.6250903405655
 20
284.2341001973546
 30
0.0
 40
1.99999999995781
 50
50.5907317741974
 51
123.9891821766203
  0
ARC
  5
42E
  8
LAYER_01
  6
CONTINUOUS
 10
719.7118357807484
 20
290.0381021571361
 30
0.0
 40
4.999999999976232
 50
67.19228137334335
 51
303.9891821750608
  0
ARC
  5
42F
  8
LAYER_01
  6
CONTINUOUS
 10
722.4253141857456
 20
296.4907787293162
 30
0.0
 40
1.999999999991209
 50
247.1922813732162
 51
320.5907317741026
  0
LINE
  5
430
  8
LAYER_01
  6
CONTINUOUS
 10
723.9705759631562
 20
295.2210677231267
 30
0.0
 11
726.8804946540582
 21
298.7624925879294
 31
0.0
  0
ARC
  5
431
  8
LAYER_01
  6
CONTINUOUS
 10
725.3352328766712
 20
300.0322035940952
 30
0.0
 40
1.999999999957978
 50
320.5907317741992
 51
33.9891821766108
  0
ARC
  5
432
  8
LAYER_01
  6
CONTINUOUS
 10
731.1392348364536
 20
303.945458153911
 30
0.0
 40
4.99999999997603
 50
337.1922813733514
 51
213.9891821750459
  0
ARC
  5
433
  8
LAYER_01
  6
CONTINUOUS
 10
737.5919114086328
 20
301.2319797489146
 30
0.0
 40
1.99999999999065
 50
157.1922813732026
 51
230.590731774199
  0
LINE
  5
434
  8
LAYER_01
  6
CONTINUOUS
 10
736.3222004024462
 20
299.6867179715023
 30
0.0
 11
739.8636252672463
 21
296.7767992806022
 31
0.0
  0
ARC
  5
435
  8
LAYER_01
  6
CONTINUOUS
 10
741.133336273412
 20
298.3220610579893
 30
0.0
 40
1.999999999957986
 50
230.5907317742015
 51
303.9891821766157
  0
ARC
  5
436
  8
LAYER_01
  6
CONTINUOUS
 10
745.046590833228
 20
292.5180590982072
 30
0.0
 40
4.999999999975968
 50
247.1922813733561
 51
123.9891821750471
  0
LINE
  5
437
  8
0
  6
CONTINUOUS
 10
391.0539659878388
 20
799.334022925822
 30
0.0
 11
391.0539659878388
 21
819.3340187535218
 31
0.0
  0
LINE
  5
438
  8
0
  6
CONTINUOUS
 10
391.0539659878388
 20
819.3340187535218
 30
0.0
 11
379.7621751655388
 21
819.3340215549218
 31
0.0
  0
ARC
  5
439
  8
0
  6
CONTINUOUS
 10
379.7621751655388
 20
817.3340215549215
 30
0.0
 40
2.000000000000341
 50
90.0
 51
163.3984504009592
  0
ARC
  5
43A
  8
0
  6
CONTINUOUS
 10
373.053971233039
 20
819.3340215549218
 30
0.0
 40
5.000000000000157
 50
106.6015495990157
 51
343.3984504009856
  0
ARC
  5
43B
  8
0
  6
CONTINUOUS
 10
371.0539712330385
 20
826.0422254874218
 30
0.0
 40
2.000000000000341
 50
286.6015495990418
 51
0.0
  0
LINE
  5
43C
  8
0
  6
CONTINUOUS
 10
373.0539712330389
 20
826.0422254874218
 30
0.0
 11
373.0539742132387
 21
869.8340167865217
 31
0.0
  0
LINE
  5
43D
  8
0
  6
CONTINUOUS
 10
373.0539742132387
 20
869.8340167865217
 30
0.0
 11
43.05397600143874
 21
879.8340221510218
 31
0.0
  0
LINE
  5
43E
  8
0
  6
CONTINUOUS
 10
43.05397600143874
 20
879.8340221510218
 30
0.0
 11
43.05397600143874
 21
813.9740561709218
 31
0.0
  0
LINE
  5
43F
  8
0
  6
CONTINUOUS
 10
43.05397600143874
 20
813.9740561709218
 30
0.0
 11
173.0539712330387
 21
780.2789209053219
 31
0.0
  0
LINE
  5
440
  8
0
  6
CONTINUOUS
 10
173.0539712330387
 20
780.2789209053219
 30
0.0
 11
173.0539712330387
 21
699.3891222045218
 31
0.0
  0
LINE
  5
441
  8
0
  6
CONTINUOUS
 10
173.0539712330387
 20
699.3891222045218
 30
0.0
 11
50.54494745079401
 21
667.6355984212154
 31
0.0
  0
ARC
  5
442
  8
0
  6
CONTINUOUS
 10
53.05397123303874
 20
657.955474472622
 30
0.0
 40
10.00000000000003
 50
104.5309166948996
 51
179.9999999999994
  0
LINE
  5
443
  8
0
  6
CONTINUOUS
 10
43.05397123303871
 20
657.9554744726221
 30
0.0
 11
43.05397600143874
 21
599.8340209589219
 31
0.0
  0
LINE
  5
444
  8
0
  6
CONTINUOUS
 10
43.05397600143874
 20
599.8340209589219
 30
0.0
 11
373.0539742132387
 21
609.8340263233217
 31
0.0
  0
LINE
  5
445
  8
0
  6
CONTINUOUS
 10
373.0539742132387
 20
609.8340263233217
 30
0.0
 11
373.0539712330389
 21
653.6258176225219
 31
0.0
  0
ARC
  5
446
  8
0
  6
CONTINUOUS
 10
371.0539712330385
 20
653.6258176225219
 30
0.0
 40
2.000000000000398
 50
0.0
 51
73.39845040095815
  0
ARC
  5
447
  8
0
  6
CONTINUOUS
 10
373.053971233039
 20
660.3340215550219
 30
0.0
 40
5.000000000000173
 50
16.60154959901445
 51
253.3984504009849
  0
ARC
  5
448
  8
0
  6
CONTINUOUS
 10
379.7621751655388
 20
662.3340215550221
 30
0.0
 40
2.000000000000341
 50
196.6015495990372
 51
270.0
  0
LINE
  5
449
  8
0
  6
CONTINUOUS
 10
379.7621751655388
 20
660.3340215550218
 30
0.0
 11
391.0539659878388
 21
660.3340243563218
 31
0.0
  0
LINE
  5
44A
  8
0
  6
CONTINUOUS
 10
391.0539659878388
 20
660.3340243563218
 30
0.0
 11
391.0539659878388
 21
680.3340201840219
 31
0.0
  0
LINE
  5
44B
  8
0
  6
CONTINUOUS
 10
391.0539659878388
 20
680.3340201840219
 30
0.0
 11
379.7621751655388
 21
680.3340215550219
 31
0.0
  0
ARC
  5
44C
  8
0
  6
CONTINUOUS
 10
379.7621751655388
 20
678.3340215550215
 30
0.0
 40
2.000000000000341
 50
90.0
 51
163.3984504009592
  0
ARC
  5
44D
  8
0
  6
CONTINUOUS
 10
373.0539712330383
 20
680.3340215550215
 30
0.0
 40
5.000000000000583
 50
106.601549599007
 51
343.3984504009898
  0
ARC
  5
44E
  8
0
  6
CONTINUOUS
 10
371.0539712330385
 20
687.0422254875218
 30
0.0
 40
2.000000000000398
 50
286.6015495990403
 51
0.0
  0
LINE
  5
44F
  8
0
  6
CONTINUOUS
 10
373.0539712330389
 20
687.0422254875218
 30
0.0
 11
373.0539742132387
 21
730.8340219423219
 31
0.0
  0
LINE
  5
450
  8
0
  6
CONTINUOUS
 10
373.0539742132387
 20
730.8340219423219
 30
0.0
 11
349.7621751655388
 21
730.834021554822
 31
0.0
  0
ARC
  5
451
  8
0
  6
CONTINUOUS
 10
349.7621751655388
 20
728.8340215548217
 30
0.0
 40
2.000000000000341
 50
90.0
 51
163.3984504009592
  0
ARC
  5
452
  8
0
  6
CONTINUOUS
 10
343.0539712330385
 20
730.8340215548217
 30
0.0
 40
5.000000000000496
 50
106.6015495990086
 51
343.3984504009908
  0
ARC
  5
453
  8
0
  6
CONTINUOUS
 10
341.0539712330384
 20
737.542225487322
 30
0.0
 40
2.000000000000398
 50
286.6015495990434
 51
0.0
  0
LINE
  5
454
  8
0
  6
CONTINUOUS
 10
343.0539712330388
 20
737.542225487322
 30
0.0
 11
343.0539712330388
 21
742.1258176223218
 31
0.0
  0
ARC
  5
455
  8
0
  6
CONTINUOUS
 10
341.0539712330384
 20
742.1258176223218
 30
0.0
 40
2.000000000000398
 50
0.0
 51
73.39845040095658
  0
ARC
  5
456
  8
0
  6
CONTINUOUS
 10
343.0539712330385
 20
748.8340215548221
 30
0.0
 40
5.000000000000496
 50
16.60154959900922
 51
253.3984504009908
  0
ARC
  5
457
  8
0
  6
CONTINUOUS
 10
349.7621751655388
 20
750.8340215548221
 30
0.0
 40
2.000000000000341
 50
196.6015495990408
 51
270.0
  0
LINE
  5
458
  8
0
  6
CONTINUOUS
 10
349.7621751655388
 20
748.8340215548218
 30
0.0
 11
373.0539742132387
 21
748.8340211675218
 31
0.0
  0
LINE
  5
459
  8
0
  6
CONTINUOUS
 10
373.0539742132387
 20
748.8340211675218
 30
0.0
 11
373.0539712330389
 21
792.6258176224219
 31
0.0
  0
ARC
  5
45A
  8
0
  6
CONTINUOUS
 10
371.0539712330387
 20
792.6258176224219
 30
0.0
 40
2.000000000000171
 50
0.0
 51
73.39845040096345
  0
ARC
  5
45B
  8
0
  6
CONTINUOUS
 10
373.0539712330386
 20
799.3340215549222
 30
0.0
 40
5.000000000000496
 50
16.60154959900654
 51
253.3984504009908
  0
ARC
  5
45C
  8
0
  6
CONTINUOUS
 10
379.7621751655388
 20
801.3340215549221
 30
0.0
 40
2.000000000000341
 50
196.6015495990439
 51
270.0
  0
LINE
  5
45D
  8
0
  6
CONTINUOUS
 10
379.7621751655388
 20
799.3340215549217
 30
0.0
 11
391.0539659878388
 21
799.334022925822
 31
0.0
  0
LINE
  5
45E
  8
0
  6
CONTINUOUS
 10
452.6321160476388
 20
1105.887884141322
 30
0.0
 11
452.6321160476388
 21
1125.887879968922
 31
0.0
  0
LINE
  5
45F
  8
0
  6
CONTINUOUS
 10
452.6321160476388
 20
1125.887879968922
 30
0.0
 11
441.3403252253387
 21
1125.887882770322
 31
0.0
  0
ARC
  5
460
  8
0
  6
CONTINUOUS
 10
441.3403252253387
 20
1123.887882770322
 30
0.0
 40
2.000000000000682
 50
89.99999999999837
 51
163.3984504009486
  0
ARC
  5
461
  8
0
  6
CONTINUOUS
 10
434.6321212928389
 20
1125.887882770322
 30
0.0
 40
5.000000000000136
 50
106.6015495990157
 51
343.3984504009841
  0
ARC
  5
462
  8
0
  6
CONTINUOUS
 10
432.6321212928385
 20
1132.596086702822
 30
0.0
 40
2.000000000000114
 50
286.6015495990375
 51
0.0
  0
LINE
  5
463
  8
0
  6
CONTINUOUS
 10
434.6321212928386
 20
1132.596086702822
 30
0.0
 11
434.6321242730388
 21
1176.387878002022
 31
0.0
  0
LINE
  5
464
  8
0
  6
CONTINUOUS
 10
434.6321242730388
 20
1176.387878002022
 30
0.0
 11
104.6321260612388
 21
1186.387883366422
 31
0.0
  0
LINE
  5
465
  8
0
  6
CONTINUOUS
 10
104.6321260612388
 20
1186.387883366422
 30
0.0
 11
104.6321260612388
 21
1120.527917386322
 31
0.0
  0
LINE
  5
466
  8
0
  6
CONTINUOUS
 10
104.6321260612388
 20
1120.527917386322
 30
0.0
 11
234.6321212928387
 21
1086.832782120822
 31
0.0
  0
LINE
  5
467
  8
0
  6
CONTINUOUS
 10
234.6321212928387
 20
1086.832782120822
 30
0.0
 11
234.6321212928387
 21
1005.942983419922
 31
0.0
  0
LINE
  5
468
  8
0
  6
CONTINUOUS
 10
234.6321212928387
 20
1005.942983419922
 30
0.0
 11
112.1230975105939
 21
974.1894596367151
 31
0.0
  0
ARC
  5
469
  8
0
  6
CONTINUOUS
 10
114.6321212928387
 20
964.5093356881218
 30
0.0
 40
10.00000000000001
 50
104.5309166949
 51
180.0
  0
LINE
  5
46A
  8
0
  6
CONTINUOUS
 10
104.6321212928387
 20
964.5093356881218
 30
0.0
 11
104.6321260612388
 21
906.3878821743219
 31
0.0
  0
LINE
  5
46B
  8
0
  6
CONTINUOUS
 10
104.6321260612388
 20
906.3878821743219
 30
0.0
 11
434.6321242730388
 21
916.3878875387218
 31
0.0
  0
LINE
  5
46C
  8
0
  6
CONTINUOUS
 10
434.6321242730388
 20
916.3878875387218
 30
0.0
 11
434.6321212928387
 21
960.1796788379218
 31
0.0
  0
ARC
  5
46D
  8
0
  6
CONTINUOUS
 10
432.6321212928383
 20
960.1796788379218
 30
0.0
 40
2.000000000000455
 50
0.0
 51
73.39845040095346
  0
ARC
  5
46E
  8
0
  6
CONTINUOUS
 10
434.6321212928387
 20
966.8878827704218
 30
0.0
 40
5.000000000000218
 50
16.60154959901283
 51
253.3984504009878
  0
ARC
  5
46F
  8
0
  6
CONTINUOUS
 10
441.3403252253387
 20
968.887882770422
 30
0.0
 40
2.000000000000227
 50
196.6015495990417
 51
270.0
  0
LINE
  5
470
  8
0
  6
CONTINUOUS
 10
441.3403252253387
 20
966.8878827704218
 30
0.0
 11
452.6321160476388
 21
966.8878855718219
 31
0.0
  0
LINE
  5
471
  8
0
  6
CONTINUOUS
 10
452.6321160476388
 20
966.8878855718219
 30
0.0
 11
452.6321160476388
 21
986.8878813994218
 31
0.0
  0
LINE
  5
472
  8
0
  6
CONTINUOUS
 10
452.6321160476388
 20
986.8878813994218
 30
0.0
 11
441.3403252253387
 21
986.8878827704219
 31
0.0
  0
ARC
  5
473
  8
0
  6
CONTINUOUS
 10
441.3403252253387
 20
984.8878827704218
 30
0.0
 40
2.000000000000114
 50
89.99999999999837
 51
163.3984504009677
  0
ARC
  5
474
  8
0
  6
CONTINUOUS
 10
434.6321212928391
 20
986.8878827704223
 30
0.0
 40
5.000000000000059
 50
106.6015495990186
 51
343.3984504009825
  0
ARC
  5
475
  8
0
  6
CONTINUOUS
 10
432.6321212928385
 20
993.5960867029218
 30
0.0
 40
2.000000000000171
 50
286.6015495990421
 51
0.0000000000065138
  0
LINE
  5
476
  8
0
  6
CONTINUOUS
 10
434.6321212928387
 20
993.596086702922
 30
0.0
 11
434.6321242730388
 21
1037.387883157822
 31
0.0
  0
LINE
  5
477
  8
0
  6
CONTINUOUS
 10
434.6321242730388
 20
1037.387883157822
 30
0.0
 11
411.3403252253387
 21
1037.387882770221
 31
0.0
  0
ARC
  5
478
  8
0
  6
CONTINUOUS
 10
411.3403252253387
 20
1035.387882770221
 30
0.0
 40
2.000000000000512
 50
89.99999999999837
 51
163.3984504009544
  0
ARC
  5
479
  8
0
  6
CONTINUOUS
 10
404.6321212928389
 20
1037.387882770222
 30
0.0
 40
5.00000000000019
 50
106.6015495990157
 51
343.3984504009842
  0
ARC
  5
47A
  8
0
  6
CONTINUOUS
 10
402.6321212928383
 20
1044.096086702722
 30
0.0
 40
2.000000000000398
 50
286.6015495990434
 51
0.0
  0
LINE
  5
47B
  8
0
  6
CONTINUOUS
 10
404.6321212928387
 20
1044.096086702722
 30
0.0
 11
404.6321212928387
 21
1048.679678837722
 31
0.0
  0
ARC
  5
47C
  8
0
  6
CONTINUOUS
 10
402.6321212928385
 20
1048.679678837722
 30
0.0
 40
2.000000000000171
 50
0.0
 51
73.39845040096566
  0
ARC
  5
47D
  8
0
  6
CONTINUOUS
 10
404.6321212928389
 20
1055.387882770221
 30
0.0
 40
5.000000000000239
 50
16.60154959901552
 51
253.3984504009824
  0
ARC
  5
47E
  8
0
  6
CONTINUOUS
 10
411.3403252253387
 20
1057.387882770222
 30
0.0
 40
2.000000000000455
 50
196.6015495990398
 51
270.0
  0
LINE
  5
47F
  8
0
  6
CONTINUOUS
 10
411.3403252253387
 20
1055.387882770221
 30
0.0
 11
434.6321242730388
 21
1055.387882382922
 31
0.0
  0
LINE
  5
480
  8
0
  6
CONTINUOUS
 10
434.6321242730388
 20
1055.387882382922
 30
0.0
 11
434.6321212928387
 21
1099.179678837822
 31
0.0
  0
ARC
  5
481
  8
0
  6
CONTINUOUS
 10
432.6321212928386
 20
1099.179678837822
 30
0.0
 40
2.000000000000171
 50
0.0
 51
73.39845040096408
  0
ARC
  5
482
  8
0
  6
CONTINUOUS
 10
434.6321212928389
 20
1105.887882770321
 30
0.0
 40
5.000000000000005
 50
16.60154959901895
 51
253.3984504009823
  0
ARC
  5
483
  8
0
  6
CONTINUOUS
 10
441.3403252253387
 20
1107.887882770322
 30
0.0
 40
2.000000000000227
 50
196.6015495990345
 51
270.0
  0
LINE
  5
484
  8
0
  6
CONTINUOUS
 10
441.3403252253387
 20
1105.887882770322
 30
0.0
 11
452.6321160476388
 21
1105.887884141322
 31
0.0
  0
LINE
  5
485
  8
0
  6
CONTINUOUS
 10
1142.895955136089
 20
1079.188097122974
 30
0.0
 11
1140.900869624109
 21
1078.818369280437
 31
0.0
  0
LINE
  5
486
  8
0
  6
CONTINUOUS
 10
1140.900869624109
 20
1078.818369280437
 30
0.0
 11
1138.925526689745
 21
1078.494877176656
 31
0.0
  0
LINE
  5
487
  8
0
  6
CONTINUOUS
 10
1138.925526689745
 20
1078.494877176656
 30
0.0
 11
1136.969299620445
 21
1078.216784142699
 31
0.0
  0
LINE
  5
488
  8
0
  6
CONTINUOUS
 10
1136.969299620445
 20
1078.216784142699
 30
0.0
 11
1135.031561703655
 21
1077.983253509631
 31
0.0
  0
LINE
  5
489
  8
0
  6
CONTINUOUS
 10
1135.031561703655
 20
1077.983253509631
 30
0.0
 11
1133.111686226822
 21
1077.793448608521
 31
0.0
  0
LINE
  5
48A
  8
0
  6
CONTINUOUS
 10
1133.111686226822
 20
1077.793448608521
 30
0.0
 11
1131.209046477392
 21
1077.646532770435
 31
0.0
  0
LINE
  5
48B
  8
0
  6
CONTINUOUS
 10
1131.209046477392
 20
1077.646532770435
 30
0.0
 11
1129.323015742812
 21
1077.541669326441
 31
0.0
  0
LINE
  5
48C
  8
0
  6
CONTINUOUS
 10
1129.323015742812
 20
1077.541669326441
 30
0.0
 11
1127.452967310528
 21
1077.478021607606
 31
0.0
  0
LINE
  5
48D
  8
0
  6
CONTINUOUS
 10
1127.452967310528
 20
1077.478021607606
 30
0.0
 11
1125.598284133132
 21
1077.454759702199
 31
0.0
  0
LINE
  5
48E
  8
0
  6
CONTINUOUS
 10
1125.598284133132
 20
1077.454759702199
 30
0.0
 11
1123.758390473143
 21
1077.471080750759
 31
0.0
  0
LINE
  5
48F
  8
0
  6
CONTINUOUS
 10
1123.758390473143
 20
1077.471080750759
 30
0.0
 11
1121.932720250906
 21
1077.526188631776
 31
0.0
  0
LINE
  5
490
  8
0
  6
CONTINUOUS
 10
1121.932720250906
 20
1077.526188631776
 30
0.0
 11
1120.120707386762
 21
1077.619287223736
 31
0.0
  0
LINE
  5
491
  8
0
  6
CONTINUOUS
 10
1120.120707386762
 20
1077.619287223736
 30
0.0
 11
1118.321785801054
 21
1077.749580405127
 31
0.0
  0
LINE
  5
492
  8
0
  6
CONTINUOUS
 10
1118.321785801054
 20
1077.749580405127
 30
0.0
 11
1116.535389414126
 21
1077.916272054437
 31
0.0
  0
LINE
  5
493
  8
0
  6
CONTINUOUS
 10
1116.535389414126
 20
1077.916272054437
 30
0.0
 11
1114.760952146321
 21
1078.118566050154
 31
0.0
  0
LINE
  5
494
  8
0
  6
CONTINUOUS
 10
1114.760952146321
 20
1078.118566050154
 30
0.0
 11
1112.99790791798
 21
1078.355666270766
 31
0.0
  0
LINE
  5
495
  8
0
  6
CONTINUOUS
 10
1112.99790791798
 20
1078.355666270766
 30
0.0
 11
1111.245700747535
 21
1078.626783351299
 31
0.0
  0
LINE
  5
496
  8
0
  6
CONTINUOUS
 10
1111.245700747535
 20
1078.626783351299
 30
0.0
 11
1109.503815045767
 21
1078.931154952935
 31
0.0
  0
LINE
  5
497
  8
0
  6
CONTINUOUS
 10
1109.503815045767
 20
1078.931154952935
 30
0.0
 11
1107.771745321544
 21
1079.268025493392
 31
0.0
  0
LINE
  5
498
  8
0
  6
CONTINUOUS
 10
1107.771745321544
 20
1079.268025493392
 30
0.0
 11
1106.048986083737
 21
1079.636639390392
 31
0.0
  0
LINE
  5
499
  8
0
  6
CONTINUOUS
 10
1106.048986083737
 20
1079.636639390392
 30
0.0
 11
1104.335031841213
 21
1080.036241061654
 31
0.0
  0
LINE
  5
49A
  8
0
  6
CONTINUOUS
 10
1104.335031841213
 20
1080.036241061654
 30
0.0
 11
1102.629377102843
 21
1080.466074924897
 31
0.0
  0
LINE
  5
49B
  8
0
  6
CONTINUOUS
 10
1102.629377102843
 20
1080.466074924897
 30
0.0
 11
1099.240944174037
 21
1081.413416898209
 31
0.0
  0
LINE
  5
49C
  8
0
  6
CONTINUOUS
 10
1099.240944174037
 20
1081.413416898209
 30
0.0
 11
1095.879724152972
 21
1082.472674704395
 31
0.0
  0
LINE
  5
49D
  8
0
  6
CONTINUOUS
 10
1095.879724152972
 20
1082.472674704395
 30
0.0
 11
1092.542077034107
 21
1083.638073946761
 31
0.0
  0
LINE
  5
49E
  8
0
  6
CONTINUOUS
 10
1092.542077034107
 20
1083.638073946761
 30
0.0
 11
1089.224443596604
 21
1084.903894280922
 31
0.0
  0
LINE
  5
49F
  8
0
  6
CONTINUOUS
 10
1089.224443596604
 20
1084.903894280922
 30
0.0
 11
1085.923264619623
 21
1086.264415362493
 31
0.0
  0
LINE
  5
4A0
  8
0
  6
CONTINUOUS
 10
1085.923264619623
 20
1086.264415362493
 30
0.0
 11
1082.635061667027
 21
1087.713970899399
 31
0.0
  0
LINE
  5
4A1
  8
0
  6
CONTINUOUS
 10
1082.635061667027
 20
1087.713970899399
 30
0.0
 11
1079.356679441484
 21
1089.247110808801
 31
0.0
  0
LINE
  5
4A2
  8
0
  6
CONTINUOUS
 10
1079.356679441484
 20
1089.247110808801
 30
0.0
 11
1076.085043430364
 21
1090.85843906017
 31
0.0
  0
LINE
  5
4A3
  8
0
  6
CONTINUOUS
 10
1076.085043430364
 20
1090.85843906017
 30
0.0
 11
1072.817079121038
 21
1092.542559622977
 31
0.0
  0
LINE
  5
4A4
  8
0
  6
CONTINUOUS
 10
1072.817079121038
 20
1092.542559622977
 30
0.0
 11
1066.280513834857
 21
1096.108025979267
 31
0.0
  0
LINE
  5
4A5
  8
0
  6
CONTINUOUS
 10
1066.280513834857
 20
1096.108025979267
 30
0.0
 11
1059.72561886996
 21
1099.902503725815
 31
0.0
  0
LINE
  5
4A6
  8
0
  6
CONTINUOUS
 10
1059.72561886996
 20
1099.902503725815
 30
0.0
 11
1019.037221399183
 21
1125.331016851965
 31
0.0
  0
LINE
  5
4A7
  8
0
  6
CONTINUOUS
 10
1019.037221399183
 20
1125.331016851965
 30
0.0
 11
1004.657400562435
 21
1133.979822521719
 31
0.0
  0
LINE
  5
4A8
  8
0
  6
CONTINUOUS
 10
1004.657400562435
 20
1133.979822521719
 30
0.0
 11
997.2798768826302
 21
1138.193362630296
 31
0.0
  0
LINE
  5
4A9
  8
0
  6
CONTINUOUS
 10
997.2798768826302
 20
1138.193362630296
 30
0.0
 11
989.7737808122297
 21
1142.295039566563
 31
0.0
  0
LINE
  5
4AA
  8
0
  6
CONTINUOUS
 10
989.7737808122297
 20
1142.295039566563
 30
0.0
 11
982.1384285218375
 21
1146.257684569864
 31
0.0
  0
LINE
  5
4AB
  8
0
  6
CONTINUOUS
 10
982.1384285218375
 20
1146.257684569864
 30
0.0
 11
974.3757212925055
 21
1150.05585855344
 31
0.0
  0
LINE
  5
4AC
  8
0
  6
CONTINUOUS
 10
974.3757212925055
 20
1150.05585855344
 30
0.0
 11
966.4888529605104
 21
1153.664987267483
 31
0.0
  0
LINE
  5
4AD
  8
0
  6
CONTINUOUS
 10
966.4888529605104
 20
1153.664987267483
 30
0.0
 11
958.4836024725765
 21
1157.062226136085
 31
0.0
  0
LINE
  5
4AE
  8
0
  6
CONTINUOUS
 10
958.4836024725765
 20
1157.062226136085
 30
0.0
 11
950.3670413306523
 21
1160.225595420289
 31
0.0
  0
LINE
  5
4AF
  8
0
  6
CONTINUOUS
 10
950.3670413306523
 20
1160.225595420289
 30
0.0
 11
942.1488261471342
 21
1163.134845055035
 31
0.0
  0
LINE
  5
4B0
  8
0
  6
CONTINUOUS
 10
942.1488261471342
 20
1163.134845055035
 30
0.0
 11
933.8399060896428
 21
1165.770589812216
 31
0.0
  0
LINE
  5
4B1
  8
0
  6
CONTINUOUS
 10
933.8399060896428
 20
1165.770589812216
 30
0.0
 11
929.6556208027029
 21
1166.980353474874
 31
0.0
  0
LINE
  5
4B2
  8
0
  6
CONTINUOUS
 10
929.6556208027029
 20
1166.980353474874
 30
0.0
 11
925.4538154362466
 21
1168.115174137622
 31
0.0
  0
LINE
  5
4B3
  8
0
  6
CONTINUOUS
 10
925.4538154362466
 20
1168.115174137622
 30
0.0
 11
921.2363433444358
 21
1169.172952960803
 31
0.0
  0
LINE
  5
4B4
  8
0
  6
CONTINUOUS
 10
921.2363433444358
 20
1169.172952960803
 30
0.0
 11
917.005381020237
 21
1170.151807313998
 31
0.0
  0
LINE
  5
4B5
  8
0
  6
CONTINUOUS
 10
917.005381020237
 20
1170.151807313998
 30
0.0
 11
912.7631857413185
 21
1171.0499086191
 31
0.0
  0
LINE
  5
4B6
  8
0
  6
CONTINUOUS
 10
912.7631857413185
 20
1171.0499086191
 30
0.0
 11
908.5120147853485
 21
1171.865428297999
 31
0.0
  0
LINE
  5
4B7
  8
0
  6
CONTINUOUS
 10
908.5120147853485
 20
1171.865428297999
 30
0.0
 11
906.5954025197387
 21
1171.865428298022
 31
0.0
  0
LINE
  5
4B8
  8
0
  6
CONTINUOUS
 10
906.5954025197387
 20
1171.865428298022
 30
0.0
 11
906.5954025076388
 21
1110.764713975822
 31
0.0
  0
ARC
  5
4B9
  8
0
  6
CONTINUOUS
 10
908.5954025076192
 20
1110.764713975822
 30
0.0
 40
1.999999999980332
 50
180.0
 51
269.1814610216008
  0
ARC
  5
4BA
  8
0
  6
CONTINUOUS
 10
908.4954025076242
 20
1103.765428298017
 30
0.0
 40
4.999999999984898
 50
196.6015495990163
 51
89.18146102085004
  0
ARC
  5
4BB
  8
0
  6
CONTINUOUS
 10
901.7871985751387
 20
1101.765428298021
 30
0.0
 40
2.000000000000455
 50
16.60154959903937
 51
90.0
  0
LINE
  5
4BC
  8
0
  6
CONTINUOUS
 10
901.7871985751387
 20
1103.765428298022
 30
0.0
 11
897.2036064401387
 21
1103.765428298022
 31
0.0
  0
ARC
  5
4BD
  8
0
  6
CONTINUOUS
 10
897.2036064401386
 20
1101.765428298022
 30
0.0
 40
2.000000000000455
 50
89.99999999999675
 51
163.3984504009606
  0
ARC
  5
4BE
  8
0
  6
CONTINUOUS
 10
890.4954025076386
 20
1103.765428298023
 30
0.0
 40
5.000000000000081
 50
106.6015495990127
 51
343.398450400984
  0
ARC
  5
4BF
  8
0
  6
CONTINUOUS
 10
888.4954025076388
 20
1110.473632230522
 30
0.0
 40
2.0
 50
286.6015495990328
 51
0.0
  0
LINE
  5
4C0
  8
0
  6
CONTINUOUS
 10
890.4954025076388
 20
1110.473632230522
 30
0.0
 11
890.4954026281388
 21
1191.765428020822
 31
0.0
  0
LINE
  5
4C1
  8
0
  6
CONTINUOUS
 10
890.4954026281388
 20
1191.765428020822
 30
0.0
 11
860.4120164006388
 21
1191.765428020822
 31
0.0
  0
LINE
  5
4C2
  8
0
  6
CONTINUOUS
 10
860.4120164006388
 20
1191.765428020822
 30
0.0
 11
860.4120147853388
 21
1178.573632230522
 31
0.0
  0
ARC
  5
4C3
  8
0
  6
CONTINUOUS
 10
862.4120147853396
 20
1178.573632230522
 30
0.0
 40
2.000000000000796
 50
180.0
 51
253.398450400946
  0
ARC
  5
4C4
  8
0
  6
CONTINUOUS
 10
860.4120147853391
 20
1171.865428298021
 30
0.0
 40
5.0000000000009
 50
196.6015495990131
 51
73.39845040099353
  0
ARC
  5
4C5
  8
0
  6
CONTINUOUS
 10
853.7038108528388
 20
1169.865428298021
 30
0.0
 40
2.000000000000455
 50
16.60154959903937
 51
90.00000000000325
  0
LINE
  5
4C6
  8
0
  6
CONTINUOUS
 10
853.7038108528387
 20
1171.865428298021
 30
0.0
 11
837.7754351883387
 21
1171.865428298022
 31
0.0
  0
LINE
  5
4C7
  8
0
  6
CONTINUOUS
 10
837.7754351883387
 20
1171.865428298022
 30
0.0
 11
837.7754375856388
 21
1041.878545794422
 31
0.0
  0
ARC
  5
4C8
  8
0
  6
CONTINUOUS
 10
847.7754375856388
 20
1041.878545794422
 30
0.0
 40
10.0
 50
180.0
 51
270.0
  0
LINE
  5
4C9
  8
0
  6
CONTINUOUS
 10
847.7754375856388
 20
1031.878545794422
 30
0.0
 11
906.5955787796977
 21
1031.878543259123
 31
0.0
  0
LINE
  5
4CA
  8
0
  6
CONTINUOUS
 10
906.5955787796977
 20
1031.878543259123
 30
0.0
 11
907.7171539917389
 21
1030.910189037883
 31
0.0
  0
LINE
  5
4CB
  8
0
  6
CONTINUOUS
 10
907.7171539917389
 20
1030.910189037883
 30
0.0
 11
908.8494372940701
 21
1029.990327127501
 31
0.0
  0
LINE
  5
4CC
  8
0
  6
CONTINUOUS
 10
908.8494372940701
 20
1029.990327127501
 30
0.0
 11
909.9914330812601
 21
1029.116659742531
 31
0.0
  0
LINE
  5
4CD
  8
0
  6
CONTINUOUS
 10
909.9914330812601
 20
1029.116659742531
 30
0.0
 11
911.1421457478779
 21
1028.286889097531
 31
0.0
  0
LINE
  5
4CE
  8
0
  6
CONTINUOUS
 10
911.1421457478779
 20
1028.286889097531
 30
0.0
 11
912.3005796884921
 21
1027.498717407056
 31
0.0
  0
LINE
  5
4CF
  8
0
  6
CONTINUOUS
 10
912.3005796884921
 20
1027.498717407056
 30
0.0
 11
913.4657392976716
 21
1026.749846885662
 31
0.0
  0
LINE
  5
4D0
  8
0
  6
CONTINUOUS
 10
913.4657392976716
 20
1026.749846885662
 30
0.0
 11
914.6366289699853
 21
1026.037979747906
 31
0.0
  0
LINE
  5
4D1
  8
0
  6
CONTINUOUS
 10
914.6366289699853
 20
1026.037979747906
 30
0.0
 11
915.8122531000022
 21
1025.360818208343
 31
0.0
  0
LINE
  5
4D2
  8
0
  6
CONTINUOUS
 10
915.8122531000022
 20
1025.360818208343
 30
0.0
 11
916.991520205052
 21
1024.716148788617
 31
0.0
  0
LINE
  5
4D3
  8
0
  6
CONTINUOUS
 10
916.991520205052
 20
1024.716148788617
 30
0.0
 11
918.1732460299188
 21
1024.102029433416
 31
0.0
  0
LINE
  5
4D4
  8
0
  6
CONTINUOUS
 10
918.1732460299188
 20
1024.102029433416
 30
0.0
 11
919.356296652681
 21
1023.516569019382
 31
0.0
  0
LINE
  5
4D5
  8
0
  6
CONTINUOUS
 10
919.356296652681
 20
1023.516569019382
 30
0.0
 11
920.5395381514169
 21
1022.957876423156
 31
0.0
  0
LINE
  5
4D6
  8
0
  6
CONTINUOUS
 10
920.5395381514169
 20
1022.957876423156
 30
0.0
 11
922.9020580891231
 21
1021.913230190696
 31
0.0
  0
LINE
  5
4D7
  8
0
  6
CONTINUOUS
 10
922.9020580891231
 20
1021.913230190696
 30
0.0
 11
925.2517344676637
 21
1020.952961749174
 31
0.0
  0
LINE
  5
4D8
  8
0
  6
CONTINUOUS
 10
925.2517344676637
 20
1020.952961749174
 30
0.0
 11
929.8764222022803
 21
1019.229007016067
 31
0.0
  0
LINE
  5
4D9
  8
0
  6
CONTINUOUS
 10
929.8764222022803
 20
1019.229007016067
 30
0.0
 11
938.5912207657746
 21
1016.223326924287
 31
0.0
  0
LINE
  5
4DA
  8
0
  6
CONTINUOUS
 10
938.5912207657746
 20
1016.223326924287
 30
0.0
 11
942.5596895261418
 21
1014.765509660647
 31
0.0
  0
LINE
  5
4DB
  8
0
  6
CONTINUOUS
 10
942.5596895261418
 20
1014.765509660647
 30
0.0
 11
944.4232516449716
 21
1014.013731359864
 31
0.0
  0
LINE
  5
4DC
  8
0
  6
CONTINUOUS
 10
944.4232516449716
 20
1014.013731359864
 30
0.0
 11
946.1993656723074
 21
1013.235798396151
 31
0.0
  0
LINE
  5
4DD
  8
0
  6
CONTINUOUS
 10
946.1993656723074
 20
1013.235798396151
 30
0.0
 11
947.0532335673191
 21
1012.834699940262
 31
0.0
  0
LINE
  5
4DE
  8
0
  6
CONTINUOUS
 10
947.0532335673191
 20
1012.834699940262
 30
0.0
 11
947.8835641382426
 21
1012.424274048121
 31
0.0
  0
LINE
  5
4DF
  8
0
  6
CONTINUOUS
 10
947.8835641382426
 20
1012.424274048121
 30
0.0
 11
948.6897989513392
 21
1012.003591129553
 31
0.0
  0
LINE
  5
4E0
  8
0
  6
CONTINUOUS
 10
948.6897989513392
 20
1012.003591129553
 30
0.0
 11
949.4713795728707
 21
1011.571721594386
 31
0.0
  0
LINE
  5
4E1
  8
0
  6
CONTINUOUS
 10
949.4713795728707
 20
1011.571721594386
 30
0.0
 11
950.2277974714628
 21
1011.127786284757
 31
0.0
  0
LINE
  5
4E2
  8
0
  6
CONTINUOUS
 10
950.2277974714628
 20
1011.127786284757
 30
0.0
 11
950.9587405876958
 21
1010.671082756453
 31
0.0
  0
LINE
  5
4E3
  8
0
  6
CONTINUOUS
 10
950.9587405876958
 20
1010.671082756453
 30
0.0
 11
951.6639451957627
 21
1010.200946489776
 31
0.0
  0
LINE
  5
4E4
  8
0
  6
CONTINUOUS
 10
951.6639451957627
 20
1010.200946489776
 30
0.0
 11
952.343147569857
 21
1009.716712965029
 31
0.0
  0
LINE
  5
4E5
  8
0
  6
CONTINUOUS
 10
952.343147569857
 20
1009.716712965029
 30
0.0
 11
952.9960839841718
 21
1009.217717662514
 31
0.0
  0
LINE
  5
4E6
  8
0
  6
CONTINUOUS
 10
952.9960839841718
 20
1009.217717662514
 30
0.0
 11
953.3126200420974
 21
1008.962476682187
 31
0.0
  0
LINE
  5
4E7
  8
0
  6
CONTINUOUS
 10
953.3126200420974
 20
1008.962476682187
 30
0.0
 11
953.6224907129005
 21
1008.703296062532
 31
0.0
  0
LINE
  5
4E8
  8
0
  6
CONTINUOUS
 10
953.6224907129005
 20
1008.703296062532
 30
0.0
 11
953.9256630308554
 21
1008.440092738586
 31
0.0
  0
LINE
  5
4E9
  8
0
  6
CONTINUOUS
 10
953.9256630308554
 20
1008.440092738586
 30
0.0
 11
954.2221040302362
 21
1008.172783645387
 31
0.0
  0
LINE
  5
4EA
  8
0
  6
CONTINUOUS
 10
954.2221040302362
 20
1008.172783645387
 30
0.0
 11
954.5117807453171
 21
1007.901285717972
 31
0.0
  0
LINE
  5
4EB
  8
0
  6
CONTINUOUS
 10
954.5117807453171
 20
1007.901285717972
 30
0.0
 11
954.7946602103722
 21
1007.625515891379
 31
0.0
  0
LINE
  5
4EC
  8
0
  6
CONTINUOUS
 10
954.7946602103722
 20
1007.625515891379
 30
0.0
 11
955.0707172195642
 21
1007.345397709127
 31
0.0
  0
LINE
  5
4ED
  8
0
  6
CONTINUOUS
 10
955.0707172195642
 20
1007.345397709127
 30
0.0
 11
955.3399497050544
 21
1007.060874851941
 31
0.0
  0
LINE
  5
4EE
  8
0
  6
CONTINUOUS
 10
955.3399497050544
 20
1007.060874851941
 30
0.0
 11
955.6023594081148
 21
1006.771894460671
 31
0.0
  0
LINE
  5
4EF
  8
0
  6
CONTINUOUS
 10
955.6023594081148
 20
1006.771894460671
 30
0.0
 11
955.8579480700173
 21
1006.478403676165
 31
0.0
  0
LINE
  5
4F0
  8
0
  6
CONTINUOUS
 10
955.8579480700173
 20
1006.478403676165
 30
0.0
 11
956.106717432034
 21
1006.180349639274
 31
0.0
  0
LINE
  5
4F1
  8
0
  6
CONTINUOUS
 10
956.106717432034
 20
1006.180349639274
 30
0.0
 11
956.3486692354369
 21
1005.877679490847
 31
0.0
  0
LINE
  5
4F2
  8
0
  6
CONTINUOUS
 10
956.3486692354369
 20
1005.877679490847
 30
0.0
 11
956.5838052214978
 21
1005.570340371732
 31
0.0
  0
LINE
  5
4F3
  8
0
  6
CONTINUOUS
 10
956.5838052214978
 20
1005.570340371732
 30
0.0
 11
956.8121271314889
 21
1005.25827942278
 31
0.0
  0
LINE
  5
4F4
  8
0
  6
CONTINUOUS
 10
956.8121271314889
 20
1005.25827942278
 30
0.0
 11
957.0336367066822
 21
1004.941443784839
 31
0.0
  0
LINE
  5
4F5
  8
0
  6
CONTINUOUS
 10
957.0336367066822
 20
1004.941443784839
 30
0.0
 11
957.2483356883494
 21
1004.619780598759
 31
0.0
  0
LINE
  5
4F6
  8
0
  6
CONTINUOUS
 10
957.2483356883494
 20
1004.619780598759
 30
0.0
 11
957.4562258177627
 21
1004.29323700539
 31
0.0
  0
LINE
  5
4F7
  8
0
  6
CONTINUOUS
 10
957.4562258177627
 20
1004.29323700539
 30
0.0
 11
957.6573088361941
 21
1003.96176014558
 31
0.0
  0
LINE
  5
4F8
  8
0
  6
CONTINUOUS
 10
957.6573088361941
 20
1003.96176014558
 30
0.0
 11
957.8515864849156
 21
1003.625297160179
 31
0.0
  0
LINE
  5
4F9
  8
0
  6
CONTINUOUS
 10
957.8515864849156
 20
1003.625297160179
 30
0.0
 11
958.0390605051992
 21
1003.283795190036
 31
0.0
  0
LINE
  5
4FA
  8
0
  6
CONTINUOUS
 10
958.0390605051992
 20
1003.283795190036
 30
0.0
 11
958.2197326383169
 21
1002.937201376001
 31
0.0
  0
LINE
  5
4FB
  8
0
  6
CONTINUOUS
 10
958.2197326383169
 20
1002.937201376001
 30
0.0
 11
958.3936046255407
 21
1002.585462858924
 31
0.0
  0
LINE
  5
4FC
  8
0
  6
CONTINUOUS
 10
958.3936046255407
 20
1002.585462858924
 30
0.0
 11
958.5606862450862
 21
1002.228532973252
 31
0.0
  0
LINE
  5
4FD
  8
0
  6
CONTINUOUS
 10
958.5606862450862
 20
1002.228532973252
 30
0.0
 11
958.7210072225254
 21
1001.866383170508
 31
0.0
  0
LINE
  5
4FE
  8
0
  6
CONTINUOUS
 10
958.7210072225254
 20
1001.866383170508
 30
0.0
 11
958.8745992201642
 21
1001.498987767152
 31
0.0
  0
LINE
  5
4FF
  8
0
  6
CONTINUOUS
 10
958.8745992201642
 20
1001.498987767152
 30
0.0
 11
959.0214939003093
 21
1001.126321079645
 31
0.0
  0
LINE
  5
500
  8
0
  6
CONTINUOUS
 10
959.0214939003093
 20
1001.126321079645
 30
0.0
 11
959.1617229252664
 21
1000.748357424445
 31
0.0
  0
LINE
  5
501
  8
0
  6
CONTINUOUS
 10
959.1617229252664
 20
1000.748357424445
 30
0.0
 11
959.295317957342
 21
1000.365071118014
 31
0.0
  0
LINE
  5
502
  8
0
  6
CONTINUOUS
 10
959.295317957342
 20
1000.365071118014
 30
0.0
 11
959.4223106588422
 21
999.9764364768102
 31
0.0
  0
LINE
  5
503
  8
0
  6
CONTINUOUS
 10
959.4223106588422
 20
999.9764364768102
 30
0.0
 11
959.5427326920733
 21
999.582427817295
 31
0.0
  0
LINE
  5
504
  8
0
  6
CONTINUOUS
 10
959.5427326920733
 20
999.582427817295
 30
0.0
 11
959.6566157193413
 21
999.183019455927
 31
0.0
  0
LINE
  5
505
  8
0
  6
CONTINUOUS
 10
959.6566157193413
 20
999.183019455927
 30
0.0
 11
959.7639914029525
 21
998.778185709167
 31
0.0
  0
LINE
  5
506
  8
0
  6
CONTINUOUS
 10
959.7639914029525
 20
998.778185709167
 30
0.0
 11
959.8648914052131
 21
998.3679008934746
 31
0.0
  0
LINE
  5
507
  8
0
  6
CONTINUOUS
 10
959.8648914052131
 20
998.3679008934746
 30
0.0
 11
959.9593473884294
 21
997.9521393253096
 31
0.0
  0
LINE
  5
508
  8
0
  6
CONTINUOUS
 10
959.9593473884294
 20
997.9521393253096
 30
0.0
 11
960.1290539469534
 21
997.1040831974021
 31
0.0
  0
LINE
  5
509
  8
0
  6
CONTINUOUS
 10
960.1290539469534
 20
997.1040831974021
 30
0.0
 11
960.2733643769742
 21
996.2338118571242
 31
0.0
  0
LINE
  5
50A
  8
0
  6
CONTINUOUS
 10
960.2733643769742
 20
996.2338118571242
 30
0.0
 11
960.3925778342499
 21
995.3411588844835
 31
0.0
  0
LINE
  5
50B
  8
0
  6
CONTINUOUS
 10
960.3925778342499
 20
995.3411588844835
 30
0.0
 11
960.487119590162
 21
994.4260855783803
 31
0.0
  0
LINE
  5
50C
  8
0
  6
CONTINUOUS
 10
960.487119590162
 20
994.4260855783803
 30
0.0
 11
960.5574321165958
 21
993.4885780488307
 31
0.0
  0
LINE
  5
50D
  8
0
  6
CONTINUOUS
 10
960.5574321165958
 20
993.4885780488307
 30
0.0
 11
960.6039578854358
 21
992.5286224058514
 31
0.0
  0
LINE
  5
50E
  8
0
  6
CONTINUOUS
 10
960.6039578854358
 20
992.5286224058514
 30
0.0
 11
960.6271393685671
 21
991.5462047594594
 31
0.0
  0
LINE
  5
50F
  8
0
  6
CONTINUOUS
 10
960.6271393685671
 20
991.5462047594594
 30
0.0
 11
960.6274190378746
 21
990.5413112196711
 31
0.0
  0
LINE
  5
510
  8
0
  6
CONTINUOUS
 10
960.6274190378746
 20
990.5413112196711
 30
0.0
 11
960.6052393652432
 21
989.5139278965032
 31
0.0
  0
LINE
  5
511
  8
0
  6
CONTINUOUS
 10
960.6052393652432
 20
989.5139278965032
 30
0.0
 11
960.5610428225579
 21
988.4640408999721
 31
0.0
  0
LINE
  5
512
  8
0
  6
CONTINUOUS
 10
960.5610428225579
 20
988.4640408999721
 30
0.0
 11
960.4953090734253
 21
987.3916712169387
 31
0.0
  0
LINE
  5
513
  8
0
  6
CONTINUOUS
 10
960.4953090734253
 20
987.3916712169387
 30
0.0
 11
960.4086072261362
 21
986.2969492263226
 31
0.0
  0
LINE
  5
514
  8
0
  6
CONTINUOUS
 10
960.4086072261362
 20
986.2969492263226
 30
0.0
 11
960.174605792732
 21
984.0410491147641
 31
0.0
  0
LINE
  5
515
  8
0
  6
CONTINUOUS
 10
960.174605792732
 20
984.0410491147641
 30
0.0
 11
959.863651633632
 21
981.69754215014
 31
0.0
  0
LINE
  5
516
  8
0
  6
CONTINUOUS
 10
959.863651633632
 20
981.69754215014
 30
0.0
 11
959.4803578601233
 21
979.2676299172938
 31
0.0
  0
LINE
  5
517
  8
0
  6
CONTINUOUS
 10
959.4803578601233
 20
979.2676299172938
 30
0.0
 11
959.029500325608
 21
976.75272558849
 31
0.0
  0
LINE
  5
518
  8
0
  6
CONTINUOUS
 10
959.029500325608
 20
976.75272558849
 30
0.0
 11
958.516279278574
 21
974.1549640503399
 31
0.0
  0
LINE
  5
519
  8
0
  6
CONTINUOUS
 10
958.516279278574
 20
974.1549640503399
 30
0.0
 11
957.3237454626097
 21
968.7200059714605
 31
0.0
  0
LINE
  5
51A
  8
0
  6
CONTINUOUS
 10
957.3237454626097
 20
968.7200059714605
 30
0.0
 11
947.7858819259945
 21
930.6730662511673
 31
0.0
  0
LINE
  5
51B
  8
0
  6
CONTINUOUS
 10
947.7858819259945
 20
930.6730662511673
 30
0.0
 11
944.7033613160528
 21
916.6360927654855
 31
0.0
  0
LINE
  5
51C
  8
0
  6
CONTINUOUS
 10
944.7033613160528
 20
916.6360927654855
 30
0.0
 11
943.3489607925331
 21
909.5137107368466
 31
0.0
  0
LINE
  5
51D
  8
0
  6
CONTINUOUS
 10
943.3489607925331
 20
909.5137107368466
 30
0.0
 11
942.1597902968335
 21
902.3681542101558
 31
0.0
  0
LINE
  5
51E
  8
0
  6
CONTINUOUS
 10
942.1597902968335
 20
902.3681542101558
 30
0.0
 11
941.163060943895
 21
895.2337175887048
 31
0.0
  0
LINE
  5
51F
  8
0
  6
CONTINUOUS
 10
941.163060943895
 20
895.2337175887048
 30
0.0
 11
940.38133472479
 21
888.143765938325
 31
0.0
  0
LINE
  5
520
  8
0
  6
CONTINUOUS
 10
940.38133472479
 20
888.143765938325
 30
0.0
 11
939.8347781986786
 21
881.1310019878651
 31
0.0
  0
LINE
  5
521
  8
0
  6
CONTINUOUS
 10
939.8347781986786
 20
881.1310019878651
 30
0.0
 11
939.654560541147
 21
877.663296844592
 31
0.0
  0
LINE
  5
522
  8
0
  6
CONTINUOUS
 10
939.654560541147
 20
877.663296844592
 30
0.0
 11
939.5387402331212
 21
874.2264704466852
 31
0.0
  0
LINE
  5
523
  8
0
  6
CONTINUOUS
 10
939.5387402331212
 20
874.2264704466852
 30
0.0
 11
939.4889320891106
 21
870.8242860478517
 31
0.0
  0
LINE
  5
524
  8
0
  6
CONTINUOUS
 10
939.4889320891106
 20
870.8242860478517
 30
0.0
 11
939.5061607342276
 21
867.4602283455056
 31
0.0
  0
LINE
  5
525
  8
0
  6
CONTINUOUS
 10
939.5061607342276
 20
867.4602283455056
 30
0.0
 11
939.5913085937442
 21
864.1377001482551
 31
0.0
  0
LINE
  5
526
  8
0
  6
CONTINUOUS
 10
939.5913085937442
 20
864.1377001482551
 30
0.0
 11
939.7452580929324
 21
860.8601042647088
 31
0.0
  0
LINE
  5
527
  8
0
  6
CONTINUOUS
 10
939.7452580929324
 20
860.8601042647088
 30
0.0
 11
939.9687437382895
 21
857.6307693164201
 31
0.0
  0
LINE
  5
528
  8
0
  6
CONTINUOUS
 10
939.9687437382895
 20
857.6307693164201
 30
0.0
 11
940.2619490316533
 21
854.4526941185313
 31
0.0
  0
LINE
  5
529
  8
0
  6
CONTINUOUS
 10
940.2619490316533
 20
854.4526941185313
 30
0.0
 11
940.6249298913068
 21
851.3287867700346
 31
0.0
  0
LINE
  5
52A
  8
0
  6
CONTINUOUS
 10
940.6249298913068
 20
851.3287867700346
 30
0.0
 11
941.0577422355326
 21
848.2619553699224
 31
0.0
  0
LINE
  5
52B
  8
0
  6
CONTINUOUS
 10
941.0577422355326
 20
848.2619553699224
 30
0.0
 11
941.5603055231753
 21
845.2550220942308
 31
0.0
  0
LINE
  5
52C
  8
0
  6
CONTINUOUS
 10
941.5603055231753
 20
845.2550220942308
 30
0.0
 11
942.1320484194063
 21
842.3104475753062
 31
0.0
  0
LINE
  5
52D
  8
0
  6
CONTINUOUS
 10
942.1320484194063
 20
842.3104475753062
 30
0.0
 11
942.7722906519982
 21
839.4305975966079
 31
0.0
  0
LINE
  5
52E
  8
0
  6
CONTINUOUS
 10
942.7722906519982
 20
839.4305975966079
 30
0.0
 11
943.4803519487245
 21
836.6178379415944
 31
0.0
  0
LINE
  5
52F
  8
0
  6
CONTINUOUS
 10
943.4803519487245
 20
836.6178379415944
 30
0.0
 11
944.2554319652608
 21
833.8744416141622
 31
0.0
  0
LINE
  5
530
  8
0
  6
CONTINUOUS
 10
944.2554319652608
 20
833.8744416141622
 30
0.0
 11
945.0963147724289
 21
831.2023065974729
 31
0.0
  0
LINE
  5
531
  8
0
  6
CONTINUOUS
 10
945.0963147724289
 20
831.2023065974729
 30
0.0
 11
946.0016967207205
 21
828.6032361438854
 31
0.0
  0
LINE
  5
532
  8
0
  6
CONTINUOUS
 10
946.0016967207205
 20
828.6032361438854
 30
0.0
 11
946.9702741606274
 21
826.0790335057573
 31
0.0
  0
LINE
  5
533
  8
0
  6
CONTINUOUS
 10
946.9702741606274
 20
826.0790335057573
 30
0.0
 11
948.0006431764706
 21
823.6314068227075
 31
0.0
  0
LINE
  5
534
  8
0
  6
CONTINUOUS
 10
948.0006431764706
 20
823.6314068227075
 30
0.0
 11
949.0910687934864
 21
821.2616921559168
 31
0.0
  0
LINE
  5
535
  8
0
  6
CONTINUOUS
 10
949.0910687934864
 20
821.2616921559168
 30
0.0
 11
950.2397507735399
 21
818.9711346400861
 31
0.0
  0
LINE
  5
536
  8
0
  6
CONTINUOUS
 10
950.2397507735399
 20
818.9711346400861
 30
0.0
 11
951.4448888784954
 21
816.7609794099158
 31
0.0
  0
LINE
  5
537
  8
0
  6
CONTINUOUS
 10
951.4448888784954
 20
816.7609794099158
 30
0.0
 11
952.0680543652339
 21
815.68642949576
 31
0.0
  0
LINE
  5
538
  8
0
  6
CONTINUOUS
 10
952.0680543652339
 20
815.68642949576
 30
0.0
 11
952.7046044206738
 21
814.6323781807314
 31
0.0
  0
LINE
  5
539
  8
0
  6
CONTINUOUS
 10
952.7046044206738
 20
814.6323781807314
 30
0.0
 11
953.3542685696926
 21
813.5989145423305
 31
0.0
  0
LINE
  5
53A
  8
0
  6
CONTINUOUS
 10
953.3542685696926
 20
813.5989145423305
 30
0.0
 11
954.0167763371682
 21
812.586127658057
 31
0.0
  0
LINE
  5
53B
  8
0
  6
CONTINUOUS
 10
954.0167763371682
 20
812.586127658057
 30
0.0
 11
954.6918572479782
 21
811.5941066054108
 31
0.0
  0
LINE
  5
53C
  8
0
  6
CONTINUOUS
 10
954.6918572479782
 20
811.5941066054108
 30
0.0
 11
955.3792408270004
 21
810.6229404618919
 31
0.0
  0
LINE
  5
53D
  8
0
  6
CONTINUOUS
 10
955.3792408270004
 20
810.6229404618919
 30
0.0
 11
956.0786565991131
 21
809.6727183050004
 31
0.0
  0
LINE
  5
53E
  8
0
  6
CONTINUOUS
 10
956.0786565991131
 20
809.6727183050004
 30
0.0
 11
956.7898340891936
 21
808.7435292122359
 31
0.0
  0
LINE
  5
53F
  8
0
  6
CONTINUOUS
 10
956.7898340891936
 20
808.7435292122359
 30
0.0
 11
957.5124936640834
 21
807.835450386086
 31
0.0
  0
LINE
  5
540
  8
0
  6
CONTINUOUS
 10
957.5124936640834
 20
807.835450386086
 30
0.0
 11
958.2463364341621
 21
806.9485182266919
 31
0.0
  0
LINE
  5
541
  8
0
  6
CONTINUOUS
 10
958.2463364341621
 20
806.9485182266919
 30
0.0
 11
958.9910630396154
 21
806.0827606080343
 31
0.0
  0
LINE
  5
542
  8
0
  6
CONTINUOUS
 10
958.9910630396154
 20
806.0827606080343
 30
0.0
 11
959.746374120629
 21
805.2382054040934
 31
0.0
  0
LINE
  5
543
  8
0
  6
CONTINUOUS
 10
959.746374120629
 20
805.2382054040934
 30
0.0
 11
960.5119703173882
 21
804.41488048885
 31
0.0
  0
LINE
  5
544
  8
0
  6
CONTINUOUS
 10
960.5119703173882
 20
804.41488048885
 30
0.0
 11
961.2875522700788
 21
803.6128137362844
 31
0.0
  0
LINE
  5
545
  8
0
  6
CONTINUOUS
 10
961.2875522700788
 20
803.6128137362844
 30
0.0
 11
962.0728206188865
 21
802.8320330203769
 31
0.0
  0
LINE
  5
546
  8
0
  6
CONTINUOUS
 10
962.0728206188865
 20
802.8320330203769
 30
0.0
 11
962.8674760039966
 21
802.0725662151085
 31
0.0
  0
LINE
  5
547
  8
0
  6
CONTINUOUS
 10
962.8674760039966
 20
802.0725662151085
 30
0.0
 11
963.671212829376
 21
801.3344301194857
 31
0.0
  0
LINE
  5
548
  8
0
  6
CONTINUOUS
 10
963.671212829376
 20
801.3344301194857
 30
0.0
 11
964.4837167620332
 21
800.617605397438
 31
0.0
  0
LINE
  5
549
  8
0
  6
CONTINUOUS
 10
964.4837167620332
 20
800.617605397438
 30
0.0
 11
965.3046753367167
 21
799.9220657203298
 31
0.0
  0
LINE
  5
54A
  8
0
  6
CONTINUOUS
 10
965.3046753367167
 20
799.9220657203298
 30
0.0
 11
966.1337760881753
 21
799.2477847595255
 31
0.0
  0
LINE
  5
54B
  8
0
  6
CONTINUOUS
 10
966.1337760881753
 20
799.2477847595255
 30
0.0
 11
966.9707065511571
 21
798.59473618639
 31
0.0
  0
LINE
  5
54C
  8
0
  6
CONTINUOUS
 10
966.9707065511571
 20
798.59473618639
 30
0.0
 11
967.8151542604111
 21
797.9628936722875
 31
0.0
  0
LINE
  5
54D
  8
0
  6
CONTINUOUS
 10
967.8151542604111
 20
797.9628936722875
 30
0.0
 11
968.6668067506854
 21
797.3522308885822
 31
0.0
  0
LINE
  5
54E
  8
0
  6
CONTINUOUS
 10
968.6668067506854
 20
797.3522308885822
 30
0.0
 11
969.525351556729
 21
796.7627215066393
 31
0.0
  0
LINE
  5
54F
  8
0
  6
CONTINUOUS
 10
969.525351556729
 20
796.7627215066393
 30
0.0
 11
970.3904606993761
 21
796.1943640255561
 31
0.0
  0
LINE
  5
550
  8
0
  6
CONTINUOUS
 10
970.3904606993761
 20
796.1943640255561
 30
0.0
 11
971.2618113399259
 21
795.647113464499
 31
0.0
  0
LINE
  5
551
  8
0
  6
CONTINUOUS
 10
971.2618113399259
 20
795.647113464499
 30
0.0
 11
972.1390987238229
 21
795.1208782749352
 31
0.0
  0
LINE
  5
552
  8
0
  6
CONTINUOUS
 10
972.1390987238229
 20
795.1208782749352
 30
0.0
 11
973.022018096512
 21
794.6155669083319
 31
0.0
  0
LINE
  5
553
  8
0
  6
CONTINUOUS
 10
973.022018096512
 20
794.6155669083319
 30
0.0
 11
973.910264703438
 21
794.1310878161555
 31
0.0
  0
LINE
  5
554
  8
0
  6
CONTINUOUS
 10
973.910264703438
 20
794.1310878161555
 30
0.0
 11
974.8035337900457
 21
793.6673494498737
 31
0.0
  0
LINE
  5
555
  8
0
  6
CONTINUOUS
 10
974.8035337900457
 20
793.6673494498737
 30
0.0
 11
975.7015206017799
 21
793.2242602609531
 31
0.0
  0
LINE
  5
556
  8
0
  6
CONTINUOUS
 10
975.7015206017799
 20
793.2242602609531
 30
0.0
 11
976.6039203840852
 21
792.8017287008611
 31
0.0
  0
LINE
  5
557
  8
0
  6
CONTINUOUS
 10
976.6039203840852
 20
792.8017287008611
 30
0.0
 11
977.5104283824065
 21
792.3996632210647
 31
0.0
  0
LINE
  5
558
  8
0
  6
CONTINUOUS
 10
977.5104283824065
 20
792.3996632210647
 30
0.0
 11
978.4207398421887
 21
792.0179722730309
 31
0.0
  0
LINE
  5
559
  8
0
  6
CONTINUOUS
 10
978.4207398421887
 20
792.0179722730309
 30
0.0
 11
979.3345500088764
 21
791.6565643082265
 31
0.0
  0
LINE
  5
55A
  8
0
  6
CONTINUOUS
 10
979.3345500088764
 20
791.6565643082265
 30
0.0
 11
980.2515541279143
 21
791.3153477781191
 31
0.0
  0
LINE
  5
55B
  8
0
  6
CONTINUOUS
 10
980.2515541279143
 20
791.3153477781191
 30
0.0
 11
981.1714474447475
 21
790.9942311341752
 31
0.0
  0
LINE
  5
55C
  8
0
  6
CONTINUOUS
 10
981.1714474447475
 20
790.9942311341752
 30
0.0
 11
982.0939252048205
 21
790.6931228278622
 31
0.0
  0
LINE
  5
55D
  8
0
  6
CONTINUOUS
 10
982.0939252048205
 20
790.6931228278622
 30
0.0
 11
983.0186826535781
 21
790.4119313106473
 31
0.0
  0
LINE
  5
55E
  8
0
  6
CONTINUOUS
 10
983.0186826535781
 20
790.4119313106473
 30
0.0
 11
983.9454150364653
 21
790.150565033997
 31
0.0
  0
LINE
  5
55F
  8
0
  6
CONTINUOUS
 10
983.9454150364653
 20
790.150565033997
 30
0.0
 11
984.8738055439866
 21
789.908904345941
 31
0.0
  0
LINE
  5
560
  8
0
  6
CONTINUOUS
 10
984.8738055439866
 20
789.908904345941
 30
0.0
 11
985.8035694074288
 21
789.6867914646341
 31
0.0
  0
LINE
  5
561
  8
0
  6
CONTINUOUS
 10
985.8035694074288
 20
789.6867914646341
 30
0.0
 11
986.7344499334099
 21
789.484077646732
 31
0.0
  0
LINE
  5
562
  8
0
  6
CONTINUOUS
 10
986.7344499334099
 20
789.484077646732
 30
0.0
 11
987.6661904285481
 21
789.3006141488909
 31
0.0
  0
LINE
  5
563
  8
0
  6
CONTINUOUS
 10
987.6661904285481
 20
789.3006141488909
 30
0.0
 11
988.5985341994614
 21
789.1362522277666
 31
0.0
  0
LINE
  5
564
  8
0
  6
CONTINUOUS
 10
988.5985341994614
 20
789.1362522277666
 30
0.0
 11
989.5312245527676
 21
788.9908431400152
 31
0.0
  0
LINE
  5
565
  8
0
  6
CONTINUOUS
 10
989.5312245527676
 20
788.9908431400152
 30
0.0
 11
990.4640047950849
 21
788.8642381422928
 31
0.0
  0
LINE
  5
566
  8
0
  6
CONTINUOUS
 10
990.4640047950849
 20
788.8642381422928
 30
0.0
 11
991.3966182330313
 21
788.756288491255
 31
0.0
  0
LINE
  5
567
  8
0
  6
CONTINUOUS
 10
991.3966182330313
 20
788.756288491255
 30
0.0
 11
992.3288081732247
 21
788.6668454435578
 31
0.0
  0
LINE
  5
568
  8
0
  6
CONTINUOUS
 10
992.3288081732247
 20
788.6668454435578
 30
0.0
 11
993.2603179222833
 21
788.5957602558572
 31
0.0
  0
LINE
  5
569
  8
0
  6
CONTINUOUS
 10
993.2603179222833
 20
788.5957602558572
 30
0.0
 11
994.1908907868251
 21
788.542884184809
 31
0.0
  0
LINE
  5
56A
  8
0
  6
CONTINUOUS
 10
994.1908907868251
 20
788.542884184809
 30
0.0
 11
995.1202700734679
 21
788.5080684870697
 31
0.0
  0
LINE
  5
56B
  8
0
  6
CONTINUOUS
 10
995.1202700734679
 20
788.5080684870697
 30
0.0
 11
996.0481990888298
 21
788.4911644192948
 31
0.0
  0
LINE
  5
56C
  8
0
  6
CONTINUOUS
 10
996.0481990888298
 20
788.4911644192948
 30
0.0
 11
996.974421139529
 21
788.4920232381403
 31
0.0
  0
LINE
  5
56D
  8
0
  6
CONTINUOUS
 10
996.974421139529
 20
788.4920232381403
 30
0.0
 11
997.8986795321833
 21
788.5104962002622
 31
0.0
  0
LINE
  5
56E
  8
0
  6
CONTINUOUS
 10
997.8986795321833
 20
788.5104962002622
 30
0.0
 11
998.8207175734109
 21
788.5464345623163
 31
0.0
  0
LINE
  5
56F
  8
0
  6
CONTINUOUS
 10
998.8207175734109
 20
788.5464345623163
 30
0.0
 11
999.7402811304463
 21
788.599669644017
 31
0.0
  0
LINE
  5
570
  8
0
  6
CONTINUOUS
 10
999.7402811304463
 20
788.599669644017
 30
0.0
 11
1000.657167023658
 21
788.6700163583555
 31
0.0
  0
LINE
  5
571
  8
0
  6
CONTINUOUS
 10
1000.657167023658
 20
788.6700163583555
 30
0.0
 11
1001.571194989365
 21
788.7573013519027
 31
0.0
  0
LINE
  5
572
  8
0
  6
CONTINUOUS
 10
1001.571194989365
 20
788.7573013519027
 30
0.0
 11
1002.482184763884
 21
788.8613512712309
 31
0.0
  0
LINE
  5
573
  8
0
  6
CONTINUOUS
 10
1002.482184763884
 20
788.8613512712309
 30
0.0
 11
1003.389956083535
 21
788.9819927629107
 31
0.0
  0
LINE
  5
574
  8
0
  6
CONTINUOUS
 10
1003.389956083535
 20
788.9819927629107
 30
0.0
 11
1004.294328684635
 21
789.1190524735139
 31
0.0
  0
LINE
  5
575
  8
0
  6
CONTINUOUS
 10
1004.294328684635
 20
789.1190524735139
 30
0.0
 11
1005.195122303504
 21
789.2723570496119
 31
0.0
  0
LINE
  5
576
  8
0
  6
CONTINUOUS
 10
1005.195122303504
 20
789.2723570496119
 30
0.0
 11
1006.092156676459
 21
789.4417331377756
 31
0.0
  0
LINE
  5
577
  8
0
  6
CONTINUOUS
 10
1006.092156676459
 20
789.4417331377756
 30
0.0
 11
1006.985251539819
 21
789.6270073845772
 31
0.0
  0
LINE
  5
578
  8
0
  6
CONTINUOUS
 10
1006.985251539819
 20
789.6270073845772
 30
0.0
 11
1007.874226629902
 21
789.8280064365872
 31
0.0
  0
LINE
  5
579
  8
0
  6
CONTINUOUS
 10
1007.874226629902
 20
789.8280064365872
 30
0.0
 11
1008.758901683027
 21
790.044556940378
 31
0.0
  0
LINE
  5
57A
  8
0
  6
CONTINUOUS
 10
1008.758901683027
 20
790.044556940378
 30
0.0
 11
1009.639096435512
 21
790.2764855425203
 31
0.0
  0
LINE
  5
57B
  8
0
  6
CONTINUOUS
 10
1009.639096435512
 20
790.2764855425203
 30
0.0
 11
1011.385323983834
 21
790.7857836281455
 31
0.0
  0
LINE
  5
57C
  8
0
  6
CONTINUOUS
 10
1011.385323983834
 20
790.7857836281455
 30
0.0
 11
1013.111467165417
 21
791.3545138660345
 31
0.0
  0
LINE
  5
57D
  8
0
  6
CONTINUOUS
 10
1013.111467165417
 20
791.3545138660345
 30
0.0
 11
1014.816195799721
 21
791.9812462184736
 31
0.0
  0
LINE
  5
57E
  8
0
  6
CONTINUOUS
 10
1014.816195799721
 20
791.9812462184736
 30
0.0
 11
1016.498641914638
 21
792.66455471429
 31
0.0
  0
LINE
  5
57F
  8
0
  6
CONTINUOUS
 10
1016.498641914638
 20
792.66455471429
 30
0.0
 11
1018.158056713369
 21
793.403058625865
 31
0.0
  0
LINE
  5
580
  8
0
  6
CONTINUOUS
 10
1018.158056713369
 20
793.403058625865
 30
0.0
 11
1019.793691399111
 21
794.1953772255802
 31
0.0
  0
LINE
  5
581
  8
0
  6
CONTINUOUS
 10
1019.793691399111
 20
794.1953772255802
 30
0.0
 11
1021.404797175064
 21
795.0401297858164
 31
0.0
  0
LINE
  5
582
  8
0
  6
CONTINUOUS
 10
1021.404797175064
 20
795.0401297858164
 30
0.0
 11
1022.990625244426
 21
795.9359355789552
 31
0.0
  0
LINE
  5
583
  8
0
  6
CONTINUOUS
 10
1022.990625244426
 20
795.9359355789552
 30
0.0
 11
1024.550426810396
 21
796.8814138773782
 31
0.0
  0
LINE
  5
584
  8
0
  6
CONTINUOUS
 10
1024.550426810396
 20
796.8814138773782
 30
0.0
 11
1026.083453076173
 21
797.8751839534661
 31
0.0
  0
LINE
  5
585
  8
0
  6
CONTINUOUS
 10
1026.083453076173
 20
797.8751839534661
 30
0.0
 11
1027.589089674723
 21
798.9158643582198
 31
0.0
  0
LINE
  5
586
  8
0
  6
CONTINUOUS
 10
1027.589089674723
 20
798.9158643582198
 30
0.0
 11
1029.067154649248
 21
800.0021612103749
 31
0.0
  0
LINE
  5
587
  8
0
  6
CONTINUOUS
 10
1029.067154649248
 20
800.0021612103749
 30
0.0
 11
1030.517547818301
 21
801.1328251339164
 31
0.0
  0
LINE
  5
588
  8
0
  6
CONTINUOUS
 10
1030.517547818301
 20
801.1328251339164
 30
0.0
 11
1031.940169000434
 21
802.3066067528293
 31
0.0
  0
LINE
  5
589
  8
0
  6
CONTINUOUS
 10
1031.940169000434
 20
802.3066067528293
 30
0.0
 11
1033.334918014198
 21
803.5222566910988
 31
0.0
  0
LINE
  5
58A
  8
0
  6
CONTINUOUS
 10
1033.334918014198
 20
803.5222566910988
 30
0.0
 11
1034.701694678147
 21
804.7785255727092
 31
0.0
  0
LINE
  5
58B
  8
0
  6
CONTINUOUS
 10
1034.701694678147
 20
804.7785255727092
 30
0.0
 11
1036.040398810831
 21
806.0741640216456
 31
0.0
  0
LINE
  5
58C
  8
0
  6
CONTINUOUS
 10
1036.040398810831
 20
806.0741640216456
 30
0.0
 11
1037.350930230804
 21
807.4079226618928
 31
0.0
  0
LINE
  5
58D
  8
0
  6
CONTINUOUS
 10
1037.350930230804
 20
807.4079226618928
 30
0.0
 11
1038.633320171984
 21
808.7785782577932
 31
0.0
  0
LINE
  5
58E
  8
0
  6
CONTINUOUS
 10
1038.633320171984
 20
808.7785782577932
 30
0.0
 11
1039.88793956484
 21
810.1850273320606
 31
0.0
  0
LINE
  5
58F
  8
0
  6
CONTINUOUS
 10
1039.88793956484
 20
810.1850273320606
 30
0.0
 11
1041.115197772751
 21
811.6262001462387
 31
0.0
  0
LINE
  5
590
  8
0
  6
CONTINUOUS
 10
1041.115197772751
 20
811.6262001462387
 30
0.0
 11
1042.315504159093
 21
813.1010269618705
 31
0.0
  0
LINE
  5
591
  8
0
  6
CONTINUOUS
 10
1042.315504159093
 20
813.1010269618705
 30
0.0
 11
1043.489268087245
 21
814.6084380404995
 31
0.0
  0
LINE
  5
592
  8
0
  6
CONTINUOUS
 10
1043.489268087245
 20
814.6084380404995
 30
0.0
 11
1044.636898920586
 21
816.147363643669
 31
0.0
  0
LINE
  5
593
  8
0
  6
CONTINUOUS
 10
1044.636898920586
 20
816.147363643669
 30
0.0
 11
1045.758806022493
 21
817.7167340329222
 31
0.0
  0
LINE
  5
594
  8
0
  6
CONTINUOUS
 10
1045.758806022493
 20
817.7167340329222
 30
0.0
 11
1046.855398756344
 21
819.3154794698025
 31
0.0
  0
LINE
  5
595
  8
0
  6
CONTINUOUS
 10
1046.855398756344
 20
819.3154794698025
 30
0.0
 11
1047.927194959564
 21
820.942566615199
 31
0.0
  0
LINE
  5
596
  8
0
  6
CONTINUOUS
 10
1047.927194959564
 20
820.942566615199
 30
0.0
 11
1048.974922341003
 21
822.5970751030854
 31
0.0
  0
LINE
  5
597
  8
0
  6
CONTINUOUS
 10
1048.974922341003
 20
822.5970751030854
 30
0.0
 11
1051.001067320595
 21
825.9847549910153
 31
0.0
  0
LINE
  5
598
  8
0
  6
CONTINUOUS
 10
1051.001067320595
 20
825.9847549910153
 30
0.0
 11
1052.939627059236
 21
829.4713169029658
 31
0.0
  0
LINE
  5
599
  8
0
  6
CONTINUOUS
 10
1052.939627059236
 20
829.4713169029658
 30
0.0
 11
1054.796394921042
 21
833.0495586083102
 31
0.0
  0
LINE
  5
59A
  8
0
  6
CONTINUOUS
 10
1054.796394921042
 20
833.0495586083102
 30
0.0
 11
1056.577524078717
 21
836.7124971614771
 31
0.0
  0
LINE
  5
59B
  8
0
  6
CONTINUOUS
 10
1056.577524078717
 20
836.7124971614771
 30
0.0
 11
1058.289720230716
 21
840.453848468153
 31
0.0
  0
LINE
  5
59C
  8
0
  6
CONTINUOUS
 10
1058.289720230716
 20
840.453848468153
 30
0.0
 11
1059.939605529787
 21
844.2674585745963
 31
0.0
  0
LINE
  5
59D
  8
0
  6
CONTINUOUS
 10
1059.939605529787
 20
844.2674585745963
 30
0.0
 11
1061.533802128674
 21
848.147173527067
 31
0.0
  0
LINE
  5
59E
  8
0
  6
CONTINUOUS
 10
1061.533802128674
 20
848.147173527067
 30
0.0
 11
1064.581409912995
 21
856.0814353870783
 31
0.0
  0
LINE
  5
59F
  8
0
  6
CONTINUOUS
 10
1064.581409912995
 20
856.0814353870783
 30
0.0
 11
1067.481521315067
 21
864.2127164651233
 31
0.0
  0
LINE
  5
5A0
  8
0
  6
CONTINUOUS
 10
1067.481521315067
 20
864.2127164651233
 30
0.0
 11
1078.374845699152
 21
897.92499500995
 31
0.0
  0
LINE
  5
5A1
  8
0
  6
CONTINUOUS
 10
1078.374845699152
 20
897.92499500995
 30
0.0
 11
1088.853385629812
 21
932.2087837251217
 31
0.0
  0
LINE
  5
5A2
  8
0
  6
CONTINUOUS
 10
1088.853385629812
 20
932.2087837251217
 30
0.0
 11
1093.753575369891
 21
949.394177938857
 31
0.0
  0
LINE
  5
5A3
  8
0
  6
CONTINUOUS
 10
1093.753575369891
 20
949.394177938857
 30
0.0
 11
1098.207190054547
 21
966.7780332153343
 31
0.0
  0
LINE
  5
5A4
  8
0
  6
CONTINUOUS
 10
1098.207190054547
 20
966.7780332153343
 30
0.0
 11
1107.144837917803
 21
1007.369769949236
 31
0.0
  0
LINE
  5
5A5
  8
0
  6
CONTINUOUS
 10
1107.144837917803
 20
1007.369769949236
 30
0.0
 11
1108.290625967805
 21
1011.959257913869
 31
0.0
  0
LINE
  5
5A6
  8
0
  6
CONTINUOUS
 10
1108.290625967805
 20
1011.959257913869
 30
0.0
 11
1109.552088496652
 21
1016.531186574881
 31
0.0
  0
LINE
  5
5A7
  8
0
  6
CONTINUOUS
 10
1109.552088496652
 20
1016.531186574881
 30
0.0
 11
1110.238586712975
 21
1018.805249353591
 31
0.0
  0
LINE
  5
5A8
  8
0
  6
CONTINUOUS
 10
1110.238586712975
 20
1018.805249353591
 30
0.0
 11
1110.969335278906
 21
1021.068369913265
 31
0.0
  0
LINE
  5
5A9
  8
0
  6
CONTINUOUS
 10
1110.969335278906
 20
1021.068369913265
 30
0.0
 11
1111.749908900943
 21
1023.318173056597
 31
0.0
  0
LINE
  5
5AA
  8
0
  6
CONTINUOUS
 10
1111.749908900943
 20
1023.318173056597
 30
0.0
 11
1112.587248809738
 21
1025.551927965985
 31
0.0
  0
LINE
  5
5AB
  8
0
  6
CONTINUOUS
 10
1112.587248809738
 20
1025.551927965985
 30
0.0
 11
1113.488709077777
 21
1027.766845322604
 31
0.0
  0
LINE
  5
5AC
  8
0
  6
CONTINUOUS
 10
1113.488709077777
 20
1027.766845322604
 30
0.0
 11
1114.461643777546
 21
1029.960135807631
 31
0.0
  0
LINE
  5
5AD
  8
0
  6
CONTINUOUS
 10
1114.461643777546
 20
1029.960135807631
 30
0.0
 11
1114.977244439915
 21
1031.047778242858
 31
0.0
  0
LINE
  5
5AE
  8
0
  6
CONTINUOUS
 10
1114.977244439915
 20
1031.047778242858
 30
0.0
 11
1115.513757887198
 21
1032.128912389858
 31
0.0
  0
LINE
  5
5AF
  8
0
  6
CONTINUOUS
 10
1115.513757887198
 20
1032.128912389858
 30
0.0
 11
1116.072435857747
 21
1033.203168644863
 31
0.0
  0
LINE
  5
5B0
  8
0
  6
CONTINUOUS
 10
1116.072435857747
 20
1033.203168644863
 30
0.0
 11
1116.654530089916
 21
1034.2701774041
 31
0.0
  0
LINE
  5
5B1
  8
0
  6
CONTINUOUS
 10
1116.654530089916
 20
1034.2701774041
 30
0.0
 11
1117.261292322057
 21
1035.329569063802
 31
0.0
  0
LINE
  5
5B2
  8
0
  6
CONTINUOUS
 10
1117.261292322057
 20
1035.329569063802
 30
0.0
 11
1117.893974292522
 21
1036.380974020197
 31
0.0
  0
LINE
  5
5B3
  8
0
  6
CONTINUOUS
 10
1117.893974292522
 20
1036.380974020197
 30
0.0
 11
1118.553827739665
 21
1037.424022669517
 31
0.0
  0
LINE
  5
5B4
  8
0
  6
CONTINUOUS
 10
1118.553827739665
 20
1037.424022669517
 30
0.0
 11
1119.242104401836
 21
1038.45834540799
 31
0.0
  0
LINE
  5
5B5
  8
0
  6
CONTINUOUS
 10
896.0979956937388
 20
412.4709341084221
 30
0.0
 11
909.3897925063387
 21
412.4709388768219
 31
0.0
  0
LINE
  5
5B6
  8
0
  6
CONTINUOUS
 10
909.3897925063387
 20
412.4709388768219
 30
0.0
 11
909.3897925063387
 21
672.470929340122
 31
0.0
  0
LINE
  5
5B7
  8
0
  6
CONTINUOUS
 10
909.3897925063387
 20
672.470929340122
 30
0.0
 11
896.0979956937388
 21
672.4709341084218
 31
0.0
  0
ARC
  5
5B8
  8
0
  6
CONTINUOUS
 10
896.0979956937388
 20
670.4709341084215
 30
0.0
 40
2.000000000000341
 50
90.0
 51
163.3984504009597
  0
ARC
  5
5B9
  8
0
  6
CONTINUOUS
 10
889.3897917612385
 20
672.4709341084216
 30
0.0
 40
5.000000000000528
 50
106.6015495990092
 51
343.3984504009895
  0
ARC
  5
5BA
  8
0
  6
CONTINUOUS
 10
887.3897917612385
 20
679.1791380409218
 30
0.0
 40
2.000000000000455
 50
286.6015495990434
 51
0.0
  0
LINE
  5
5BB
  8
0
  6
CONTINUOUS
 10
889.3897917612389
 20
679.1791380409218
 30
0.0
 11
889.3897910907388
 21
690.4709360158217
 31
0.0
  0
LINE
  5
5BC
  8
0
  6
CONTINUOUS
 10
889.3897910907388
 20
690.4709360158217
 30
0.0
 11
829.3897924318388
 21
690.4709360158217
 31
0.0
  0
LINE
  5
5BD
  8
0
  6
CONTINUOUS
 10
829.3897924318388
 20
690.4709360158217
 30
0.0
 11
829.3897917612388
 21
679.1791380409218
 31
0.0
  0
ARC
  5
5BE
  8
0
  6
CONTINUOUS
 10
831.3897917612392
 20
679.1791380409218
 30
0.0
 40
2.000000000000341
 50
180.0
 51
253.3984504009597
  0
ARC
  5
5BF
  8
0
  6
CONTINUOUS
 10
829.3897917612385
 20
672.4709341084221
 30
0.0
 40
5.000000000000473
 50
196.6015495990175
 51
73.39845040098093
  0
ARC
  5
5C0
  8
0
  6
CONTINUOUS
 10
822.6815878287388
 20
670.4709341084215
 30
0.0
 40
2.000000000000341
 50
16.6015495990403
 51
90.0
  0
LINE
  5
5C1
  8
0
  6
CONTINUOUS
 10
822.6815878287388
 20
672.4709341084218
 30
0.0
 11
809.3897910162387
 21
672.470929340122
 31
0.0
  0
LINE
  5
5C2
  8
0
  6
CONTINUOUS
 10
809.3897910162387
 20
672.470929340122
 30
0.0
 11
809.3897910162387
 21
412.4709388768219
 31
0.0
  0
LINE
  5
5C3
  8
0
  6
CONTINUOUS
 10
809.3897910162387
 20
412.4709388768219
 30
0.0
 11
822.6815878287388
 21
412.4709341084219
 31
0.0
  0
ARC
  5
5C4
  8
0
  6
CONTINUOUS
 10
822.6815878287388
 20
414.4709341084224
 30
0.0
 40
2.000000000000512
 50
270.0
 51
343.3984504009529
  0
ARC
  5
5C5
  8
0
  6
CONTINUOUS
 10
829.3897917612385
 20
412.4709341084213
 30
0.0
 40
5.000000000000195
 50
286.6015495990171
 51
163.3984504009796
  0
ARC
  5
5C6
  8
0
  6
CONTINUOUS
 10
831.389791761239
 20
405.7627301759217
 30
0.0
 40
2.000000000000227
 50
106.6015495990417
 51
180.0
  0
LINE
  5
5C7
  8
0
  6
CONTINUOUS
 10
829.3897917612388
 20
405.7627301759217
 30
0.0
 11
829.3897924318388
 21
394.4709322011217
 31
0.0
  0
LINE
  5
5C8
  8
0
  6
CONTINUOUS
 10
829.3897924318388
 20
394.4709322011217
 30
0.0
 11
889.3897910907388
 21
394.4709322011217
 31
0.0
  0
LINE
  5
5C9
  8
0
  6
CONTINUOUS
 10
889.3897910907388
 20
394.4709322011217
 30
0.0
 11
889.3897917612388
 21
405.7627301759217
 31
0.0
  0
ARC
  5
5CA
  8
0
  6
CONTINUOUS
 10
887.3897917612385
 20
405.7627301759218
 30
0.0
 40
2.000000000000341
 50
359.9999999999984
 51
73.39845040095612
  0
ARC
  5
5CB
  8
0
  6
CONTINUOUS
 10
889.3897917612386
 20
412.4709341084219
 30
0.0
 40
5.000000000000713
 50
16.60154959901259
 51
253.3984504009916
  0
ARC
  5
5CC
  8
0
  6
CONTINUOUS
 10
896.0979956937388
 20
414.4709341084222
 30
0.0
 40
2.000000000000145
 50
196.6015495990406
 51
270.0
  0
ARC
  5
5CD
  8
LAYER_01
  6
CONTINUOUS
 10
736.9143002489383
 20
416.9111334808219
 30
0.0
 40
2.000000000000682
 50
286.6015495990442
 51
359.9999999999968
  0
LINE
  5
5CE
  8
LAYER_01
  6
CONTINUOUS
 10
738.914300248939
 20
416.9111334808218
 30
0.0
 11
738.9143002489387
 21
421.4947256158218
 31
0.0
  0
ARC
  5
5CF
  8
LAYER_01
  6
CONTINUOUS
 10
736.9143002489383
 20
421.4947256158218
 30
0.0
 40
2.000000000000455
 50
0.0
 51
73.39845040095705
  0
ARC
  5
5D0
  8
LAYER_01
  6
CONTINUOUS
 10
738.9143002489383
 20
428.202929548322
 30
0.0
 40
5.000000000000464
 50
16.60154959900959
 51
253.398450400992
  0
ARC
  5
5D1
  8
LAYER_01
  6
CONTINUOUS
 10
745.6225041814388
 20
430.2029295483221
 30
0.0
 40
2.000000000000341
 50
196.6015495990403
 51
270.0
  0
LINE
  5
5D2
  8
LAYER_01
  6
CONTINUOUS
 10
745.6225041814388
 20
428.2029295483218
 30
0.0
 11
752.2060963164388
 21
428.2029295483218
 31
0.0
  0
ARC
  5
5D3
  8
LAYER_01
  6
CONTINUOUS
 10
752.2060963164388
 20
430.2029295483221
 30
0.0
 40
2.000000000000341
 50
270.0
 51
343.3984504009597
  0
ARC
  5
5D4
  8
LAYER_01
  6
CONTINUOUS
 10
758.9143002489385
 20
428.2029295483217
 30
0.0
 40
4.999999999999972
 50
286.6015495990164
 51
163.3984504009848
  0
ARC
  5
5D5
  8
LAYER_01
  6
CONTINUOUS
 10
760.914300248939
 20
421.4947256158218
 30
0.0
 40
2.000000000000341
 50
106.6015495990408
 51
180.0
  0
LINE
  5
5D6
  8
LAYER_01
  6
CONTINUOUS
 10
758.9143002489386
 20
421.4947256158218
 30
0.0
 11
758.9143002489387
 21
416.9111334808218
 31
0.0
  0
ARC
  5
5D7
  8
LAYER_01
  6
CONTINUOUS
 10
760.9143002489391
 20
416.9111334808217
 30
0.0
 40
2.000000000000341
 50
179.9999999999967
 51
253.3984504009557
  0
ARC
  5
5D8
  8
LAYER_01
  6
CONTINUOUS
 10
758.914300248939
 20
410.2029295483218
 30
0.0
 40
5.000000000000332
 50
196.6015495990131
 51
73.39845040099023
  0
ARC
  5
5D9
  8
LAYER_01
  6
CONTINUOUS
 10
752.2060963164388
 20
408.2029295483213
 30
0.0
 40
2.000000000000398
 50
16.60154959904342
 51
90.0
  0
LINE
  5
5DA
  8
LAYER_01
  6
CONTINUOUS
 10
752.2060963164388
 20
410.2029295483217
 30
0.0
 11
745.6225041814388
 21
410.2029295483217
 31
0.0
  0
ARC
  5
5DB
  8
LAYER_01
  6
CONTINUOUS
 10
745.6225041814388
 20
408.2029295483212
 30
0.0
 40
2.000000000000512
 50
90.0
 51
163.3984504009544
  0
ARC
  5
5DC
  8
LAYER_01
  6
CONTINUOUS
 10
738.9143002489393
 20
410.2029295483222
 30
0.0
 40
4.999999999999852
 50
106.6015495990209
 51
343.3984504009791
  0
LINE
  5
5DD
  8
0
  6
CONTINUOUS
 10
818.3781838859388
 20
1030.103461330822
 30
0.0
 11
788.3781845565388
 21
1030.103461330822
 31
0.0
  0
LINE
  5
5DE
  8
0
  6
CONTINUOUS
 10
788.3781845565388
 20
1030.103461330822
 30
0.0
 11
788.3781842212388
 21
1016.021150937022
 31
0.0
  0
ARC
  5
5DF
  8
0
  6
CONTINUOUS
 10
790.3781842212638
 20
1016.021150937022
 30
0.0
 40
2.000000000025011
 50
180.0
 51
265.9146254166702
  0
ARC
  5
5E0
  8
0
  6
CONTINUOUS
 10
789.8794843861646
 20
1009.038937930041
 30
0.0
 40
5.000000000001595
 50
171.2528784242405
 51
85.91462541791208
  0
ARC
  5
5E1
  8
0
  6
CONTINUOUS
 10
782.9609003250389
 20
1010.10345405904
 30
0.0
 40
1.999999999981355
 50
351.2528784237192
 51
90.00000000000325
  0
LINE
  5
5E2
  8
0
  6
CONTINUOUS
 10
782.9609003250388
 20
1012.103454059021
 30
0.0
 11
763.3781851153387
 21
1012.103454655122
 31
0.0
  0
LINE
  5
5E3
  8
0
  6
CONTINUOUS
 10
763.3781851153387
 20
1012.103454655122
 30
0.0
 11
763.3781851153387
 21
732.1034534630219
 31
0.0
  0
LINE
  5
5E4
  8
0
  6
CONTINUOUS
 10
763.3781851153387
 20
732.1034534630219
 30
0.0
 11
782.9609003250388
 21
732.1034540590217
 31
0.0
  0
ARC
  5
5E5
  8
0
  6
CONTINUOUS
 10
782.9609003250387
 20
734.1034540590101
 30
0.0
 40
1.999999999988404
 50
270.0000000000032
 51
8.74712157750854
  0
ARC
  5
5E6
  8
0
  6
CONTINUOUS
 10
789.8794843861646
 20
735.1679701881108
 30
0.0
 40
5.000000000010211
 50
274.0853745820809
 51
188.7471215764219
  0
ARC
  5
5E7
  8
0
  6
CONTINUOUS
 10
790.3781842212637
 20
728.185757181122
 30
0.0
 40
2.000000000024897
 50
94.08537458332675
 51
180.0
  0
LINE
  5
5E8
  8
0
  6
CONTINUOUS
 10
788.3781842212388
 20
728.185757181122
 30
0.0
 11
788.3781845565388
 21
714.1034467873219
 31
0.0
  0
LINE
  5
5E9
  8
0
  6
CONTINUOUS
 10
788.3781845565388
 20
714.1034467873219
 30
0.0
 11
818.3781838859388
 21
714.1034467873219
 31
0.0
  0
LINE
  5
5EA
  8
0
  6
CONTINUOUS
 10
818.3781838859388
 20
714.1034467873219
 30
0.0
 11
818.3781842212388
 21
725.3952501265219
 31
0.0
  0
ARC
  5
5EB
  8
0
  6
CONTINUOUS
 10
816.3781842212384
 20
725.3952501265219
 30
0.0
 40
2.000000000000455
 50
0.0
 51
73.39845040095658
  0
ARC
  5
5EC
  8
0
  6
CONTINUOUS
 10
818.3781842212385
 20
732.1034540590222
 30
0.0
 40
5.000000000000496
 50
16.60154959900922
 51
253.3984504009908
  0
ARC
  5
5ED
  8
0
  6
CONTINUOUS
 10
825.0863881537389
 20
734.1034540590222
 30
0.0
 40
2.000000000000341
 50
196.6015495990412
 51
269.9999999999968
  0
LINE
  5
5EE
  8
0
  6
CONTINUOUS
 10
825.0863881537388
 20
732.1034540590218
 30
0.0
 11
843.3781833271388
 21
732.1034534630219
 31
0.0
  0
LINE
  5
5EF
  8
0
  6
CONTINUOUS
 10
843.3781833271388
 20
732.1034534630219
 30
0.0
 11
843.3781833271388
 21
1012.103454655122
 31
0.0
  0
LINE
  5
5F0
  8
0
  6
CONTINUOUS
 10
843.3781833271388
 20
1012.103454655122
 30
0.0
 11
825.0863881537388
 21
1012.103454059021
 31
0.0
  0
ARC
  5
5F1
  8
0
  6
CONTINUOUS
 10
825.0863881537388
 20
1010.103454059021
 30
0.0
 40
2.000000000000369
 50
90.0
 51
163.3984504009566
  0
ARC
  5
5F2
  8
0
  6
CONTINUOUS
 10
818.3781842212383
 20
1012.103454059022
 30
0.0
 40
5.000000000000431
 50
106.6015495990067
 51
343.3984504009933
  0
ARC
  5
5F3
  8
0
  6
CONTINUOUS
 10
816.3781842212384
 20
1018.811657991522
 30
0.0
 40
2.000000000000455
 50
286.6015495990434
 51
0.0
  0
LINE
  5
5F4
  8
0
  6
CONTINUOUS
 10
818.3781842212388
 20
1018.811657991522
 30
0.0
 11
818.3781838859388
 21
1030.103461330822
 31
0.0
  0
ARC
  5
5F5
  8
0
  6
CONTINUOUS
 10
906.9674968039387
 20
756.604348408322
 30
0.0
 40
2.000000000000341
 50
196.6015495990403
 51
270.0
  0
LINE
  5
5F6
  8
0
  6
CONTINUOUS
 10
906.9674968039387
 20
754.6043484083217
 30
0.0
 11
910.2592928714388
 21
754.6043484083218
 31
0.0
  0
LINE
  5
5F7
  8
0
  6
CONTINUOUS
 10
910.2592928714388
 20
754.6043484083218
 30
0.0
 11
910.2592928714388
 21
978.6043484083218
 31
0.0
  0
LINE
  5
5F8
  8
0
  6
CONTINUOUS
 10
910.2592928714388
 20
978.6043484083218
 30
0.0
 11
906.9674968039387
 21
978.6043484083218
 31
0.0
  0
ARC
  5
5F9
  8
0
  6
CONTINUOUS
 10
906.9674968039387
 20
976.6043484083214
 30
0.0
 40
2.000000000000455
 50
90.0
 51
163.3984504009535
  0
ARC
  5
5FA
  8
0
  6
CONTINUOUS
 10
900.2592928714384
 20
978.6043484083216
 30
0.0
 40
5.000000000000496
 50
106.601549599008
 51
343.3984504009908
  0
ARC
  5
5FB
  8
0
  6
CONTINUOUS
 10
898.2592928714386
 20
985.3125523408219
 30
0.0
 40
2.000000000000227
 50
286.6015495990412
 51
0.0
  0
LINE
  5
5FC
  8
0
  6
CONTINUOUS
 10
900.2592928714388
 20
985.3125523408219
 30
0.0
 11
900.2592928714388
 21
1014.604348408322
 31
0.0
  0
LINE
  5
5FD
  8
0
  6
CONTINUOUS
 10
900.2592928714388
 20
1014.604348408322
 30
0.0
 11
880.2592928714388
 21
1014.604348408322
 31
0.0
  0
LINE
  5
5FE
  8
0
  6
CONTINUOUS
 10
880.2592928714388
 20
1014.604348408322
 30
0.0
 11
880.2592928714388
 21
985.3125523408219
 31
0.0
  0
ARC
  5
5FF
  8
0
  6
CONTINUOUS
 10
882.2592928714391
 20
985.3125523408219
 30
0.0
 40
2.000000000000341
 50
180.0
 51
253.3984504009557
  0
ARC
  5
600
  8
0
  6
CONTINUOUS
 10
880.2592928714391
 20
978.6043484083218
 30
0.0
 40
5.000000000000496
 50
196.6015495990121
 51
73.3984504009908
  0
ARC
  5
601
  8
0
  6
CONTINUOUS
 10
873.5510889389388
 20
976.6043484083216
 30
0.0
 40
2.000000000000341
 50
16.6015495990403
 51
90.00000000000325
  0
LINE
  5
602
  8
0
  6
CONTINUOUS
 10
873.5510889389387
 20
978.6043484083219
 30
0.0
 11
870.2592928714388
 21
978.6043484083218
 31
0.0
  0
LINE
  5
603
  8
0
  6
CONTINUOUS
 10
870.2592928714388
 20
978.6043484083218
 30
0.0
 11
870.2592928714388
 21
754.6043484083218
 31
0.0
  0
LINE
  5
604
  8
0
  6
CONTINUOUS
 10
870.2592928714388
 20
754.6043484083218
 30
0.0
 11
873.5510889389387
 21
754.6043484083216
 31
0.0
  0
ARC
  5
605
  8
0
  6
CONTINUOUS
 10
873.5510889389387
 20
756.6043484083219
 30
0.0
 40
2.000000000000341
 50
270.0
 51
343.3984504009628
  0
ARC
  5
606
  8
0
  6
CONTINUOUS
 10
880.2592928714384
 20
754.6043484083216
 30
0.0
 40
5.000000000000081
 50
286.601549599016
 51
163.3984504009839
  0
ARC
  5
607
  8
0
  6
CONTINUOUS
 10
882.2592928714394
 20
747.8961444758218
 30
0.0
 40
2.000000000000568
 50
106.6015495990528
 51
180.0
  0
LINE
  5
608
  8
0
  6
CONTINUOUS
 10
880.2592928714388
 20
747.8961444758218
 30
0.0
 11
880.2592928714388
 21
718.6043484083218
 31
0.0
  0
LINE
  5
609
  8
0
  6
CONTINUOUS
 10
880.2592928714388
 20
718.6043484083218
 30
0.0
 11
900.2592928714388
 21
718.6043484083218
 31
0.0
  0
LINE
  5
60A
  8
0
  6
CONTINUOUS
 10
900.2592928714388
 20
718.6043484083218
 30
0.0
 11
900.2592928714388
 21
747.8961444758218
 31
0.0
  0
ARC
  5
60B
  8
0
  6
CONTINUOUS
 10
898.2592928714388
 20
747.8961444758218
 30
0.0
 40
2.0
 50
0.0
 51
73.39845040100029
  0
ARC
  5
60C
  8
0
  6
CONTINUOUS
 10
900.259292871439
 20
754.604348408322
 30
0.0
 40
5.000000000000301
 50
16.60154959901158
 51
253.3984504009983
  0
ARC
  5
60D
  8
LAYER_01
  6
CONTINUOUS
 10
760.9143002489387
 20
639.4947256158218
 30
0.0
 40
2.000000000000114
 50
106.6015495990359
 51
180.0
  0
LINE
  5
60E
  8
LAYER_01
  6
CONTINUOUS
 10
758.9143002489386
 20
639.4947256158218
 30
0.0
 11
758.9143002489387
 21
634.9111334808217
 31
0.0
  0
ARC
  5
60F
  8
LAYER_01
  6
CONTINUOUS
 10
760.9143002489388
 20
634.9111334808217
 30
0.0
 40
2.000000000000114
 50
180.0
 51
253.398450400961
  0
ARC
  5
610
  8
LAYER_01
  6
CONTINUOUS
 10
758.9143002489388
 20
628.2029295483218
 30
0.0
 40
5.000000000000638
 50
196.6015495990129
 51
73.39845040098992
  0
ARC
  5
611
  8
LAYER_01
  6
CONTINUOUS
 10
752.2060963164388
 20
626.2029295483217
 30
0.0
 40
2.000000000000114
 50
16.60154959903592
 51
90.0
  0
LINE
  5
612
  8
LAYER_01
  6
CONTINUOUS
 10
752.2060963164388
 20
628.2029295483218
 30
0.0
 11
745.6225041814388
 21
628.2029295483218
 31
0.0
  0
ARC
  5
613
  8
LAYER_01
  6
CONTINUOUS
 10
745.6225041814388
 20
626.2029295483214
 30
0.0
 40
2.000000000000341
 50
90.0
 51
163.3984504009628
  0
ARC
  5
614
  8
LAYER_01
  6
CONTINUOUS
 10
738.9143002489386
 20
628.2029295483211
 30
0.0
 40
5.000000000000528
 50
106.6015495990105
 51
343.3984504009936
  0
ARC
  5
615
  8
LAYER_01
  6
CONTINUOUS
 10
736.9143002489385
 20
634.9111334808217
 30
0.0
 40
2.000000000000341
 50
286.6015495990403
 51
0.0
  0
LINE
  5
616
  8
LAYER_01
  6
CONTINUOUS
 10
738.9143002489388
 20
634.9111334808217
 30
0.0
 11
738.9143002489387
 21
639.4947256158218
 31
0.0
  0
ARC
  5
617
  8
LAYER_01
  6
CONTINUOUS
 10
736.9143002489383
 20
639.4947256158218
 30
0.0
 40
2.000000000000455
 50
0.0
 51
73.39845040095346
  0
ARC
  5
618
  8
LAYER_01
  6
CONTINUOUS
 10
738.9143002489386
 20
646.2029295483223
 30
0.0
 40
5.000000000000496
 50
16.60154959900672
 51
253.3984504009908
  0
ARC
  5
619
  8
LAYER_01
  6
CONTINUOUS
 10
745.6225041814388
 20
648.202929548322
 30
0.0
 40
2.000000000000227
 50
196.6015495990381
 51
270.0
  0
LINE
  5
61A
  8
LAYER_01
  6
CONTINUOUS
 10
745.6225041814388
 20
646.2029295483218
 30
0.0
 11
752.2060963164388
 21
646.2029295483218
 31
0.0
  0
ARC
  5
61B
  8
LAYER_01
  6
CONTINUOUS
 10
752.2060963164388
 20
648.2029295483221
 30
0.0
 40
2.000000000000341
 50
270.0
 51
343.3984504009597
  0
ARC
  5
61C
  8
LAYER_01
  6
CONTINUOUS
 10
758.9143002489395
 20
646.2029295483223
 30
0.0
 40
5.000000000000758
 50
286.6015495990015
 51
163.3984504009944
  0
LINE
  5
61E
  8
LAYER_02
 10
2493.862745098039
 20
1238.326797385622
 30
0.0
 11
-6.137254901961228
 21
1238.326797385622
 31
0.0
  0
LINE
  5
61F
  8
LAYER_02
 10
-6.137254901961228
 20
1238.326797385622
 30
0.0
 11
-6.137254901961228
 21
-11.67320261437817
 31
0.0
  0
LINE
  5
620
  8
LAYER_02
 10
-6.137254901961228
 20
-11.67320261437817
 30
0.0
 11
2493.862745098039
 21
-11.67320261437817
 31
0.0
  0
LINE
  5
621
  8
LAYER_02
 10
2493.862745098039
 20
-11.67320261437817
 30
0.0
 11
2493.862745098039
 21
1238.326797385622
 31
0.0
  0
LINE
  5
622
  8
0
  6
CONTINUOUS
 10
1119.242104401837
 20
1038.45834540799
 30
0.0
 11
1144.932641330842
 21
1076.097974167015
 31
0.0
  0
ARC
  5
623
  8
0
  6
CONTINUOUS
 10
1143.280741583839
 20
1077.225461295922
 30
0.0
 40
2.000000000000033
 50
325.684912400002
 51
101.0924830625001
  0
CIRCLE
  5
624
  8
LAYER_01
  6
CONTINUOUS
 10
1057.029780719839
 20
988.2286379434217
 30
0.0
 40
7.000000000000227
  0
CIRCLE
  5
625
  8
LAYER_01
  6
CONTINUOUS
 10
1044.905820095139
 20
1063.679587590022
 30
0.0
 40
9.999999999999886
  0
ENDSEC
  0
EOF
