0
SECTION
2
HEADER
9
$INSUNITS
70
4
9
$ACADVER
1
AC1014
9
$HANDSEED
5
FFFF
0
ENDSEC
0
SECTION
2
TABLES
0
TABLE
2
VPORT
5
8
100
AcDbSymbolTable
0
ENDTAB
0
TABLE
2
LTYPE
5
5
100
AcDbSymbolTable
0
LTYPE
5
14
100
AcDbSymbolTableRecord
100
AcDbLinetypeTableRecord
2
BYBLOCK
70
0
0
LTYPE
5
15
100
AcDbSymbolTableRecord
100
AcDbLinetypeTableRecord
2
BYLAYER
70
0
0
ENDTAB
0
TABLE
2
LAYER
5
2
100
AcDbSymbolTable
70
2
0
LAYER
5
50
100
AcDbSymbolTableRecord
100
AcDbLayerTableRecord
2
0
70
0
6
CONTINUOUS
0
ENDTAB
0
TABLE
2
STYLE
5
3
100
AcDbSymbolTable
70
1
0
STYLE
5
11
100
AcDbSymbolTableRecord
100
AcDbTextStyleTableRecord
2
STANDARD
70
0
0
ENDTAB
0
TABLE
2
VIEW
5
6
100
AcDbSymbolTable
70
0
0
ENDTAB
0
TABLE
2
UCS
5
7
100
AcDbSymbolTable
70
0
0
ENDTAB
0
TABLE
2
APPID
5
9
100
AcDbSymbolTable
70
2
0
APPID
5
12
100
AcDbSymbolTableRecord
100
AcDbRegAppTableRecord
2
ACAD
70
0
0
ENDTAB
0
TABLE
2
DIMSTYLE
5
A
100
AcDbSymbolTable
70
1
0
ENDTAB
0
TABLE
2
BLOCK_RECORD
5
1
100
AcDbSymbolTable
70
1
0
BLOCK_RECORD
5
1F
100
AcDbSymbolTableRecord
100
AcDbBlockTableRecord
2
*MODEL_SPACE
0
BLOCK_RECORD
5
1B
100
AcDbSymbolTableRecord
100
AcDbBlockTableRecord
2
*PAPER_SPACE
0
ENDTAB
0
ENDSEC
0
SECTION
2
BLOCKS
0
BLOCK
5
20
100
AcDbEntity
100
AcDbBlockBegin
2
*MODEL_SPACE
0
ENDBLK
5
21
100
AcDbEntity
100
AcDbBlockEnd
0
BLOCK
5
1C
100
AcDbEntity
100
AcDbBlockBegin
2
*PAPER_SPACE
0
ENDBLK
5
1D
100
AcDbEntity
100
AcDbBlockEnd
0
ENDSEC
0
SECTION
2
ENTITIES
0
LINE
5
100
100
AcDbEntity
8
0
100
AcDbLine
10
0
20
0
30
0
11
100
21
0
31
0
0
LINE
5
101
100
AcDbEntity
8
0
100
AcDbLine
10
0
20
0
30
0
11
0
21
86.000001281499863
31
0
0
LINE
5
102
100
AcDbEntity
8
0
100
AcDbLine
10
0
20
0
30
0
11
-100
21
0
31
0
0
ARC
5
103
100
AcDbEntity
8
0
100
AcDbCircle
10
4.2846360370906567
20
174.10579756093412
30
0
40
122.03555835799551
210
0
220
0
230
1
100
AcDbArc
50
224.22899278407763
51
257.48366102289754
0
ARC
5
104
100
AcDbEntity
8
0
100
AcDbCircle
10
-0.52691550114349894
20
58.34022271569188
30
0
40
17.185116619450984
210
0
220
0
230
1
100
AcDbArc
50
208.88548642283243
51
271.75703007163588
0
ARC
5
105
100
AcDbEntity
8
0
100
AcDbCircle
10
-24.329848005455084
20
45.208163859277171
30
0
40
10.00000000000005
210
0
220
-0
230
1
100
AcDbArc
50
28.885486422832511
51
77.483661022897437
0
LINE
5
106
100
AcDbEntity
8
0
100
AcDbLine
10
-89.517177123406412
20
89.655217476302468
30
0
11
-93.808957275879294
21
86.794030707987204
31
0
0
ARC
5
107
100
AcDbEntity
8
0
100
AcDbCircle
10
39.846154439907835
20
174.30769490507942
30
0
40
164.79393869151039
210
0
220
0
230
1
100
AcDbArc
50
215.0087013858334
51
244.15260372689318
0
ARC
5
108
100
AcDbEntity
8
0
100
AcDbCircle
10
-26.250000391155339
20
-150.0000022351748
30
0
40
176.09390513059307
210
0
220
0
230
1
100
AcDbArc
50
91.871213597639581
51
115.16364630640196
0
LINE
5
109
100
AcDbEntity
8
0
100
AcDbLine
10
-104.00000154972076
20
4.8565820751641198
30
0
11
-104.00000154972076
21
-6.9922609823481707
31
0
0
ARC
5
110
100
AcDbEntity
8
0
100
AcDbCircle
10
-3.2432432915713605
20
176.72973236320783
30
0
40
212.17897478019864
210
0
220
0
230
1
100
AcDbArc
50
242.47126450023066
51
263.29954329164718
0
ARC
5
111
100
AcDbEntity
8
0
100
AcDbCircle
10
69.352942209908974
20
-259.0000038593995
30
0
40
245.1583099691004
210
0
220
0
230
1
100
AcDbArc
50
113.39715732252688
51
130.74698491349568
0
LINE
5
112
100
AcDbEntity
8
0
100
AcDbLine
10
-89.83137716905054
20
-81.427014640879989
30
0
11
-82.219067345120123
21
-85.656075654174657
31
0
0
LINE
5
113
100
AcDbEntity
8
0
100
AcDbLine
10
0
20
0
30
0
11
0
21
-94.000001400709152
31
0
0
LINE
5
114
100
AcDbEntity
8
0
100
AcDbLine
10
0
20
-76.000001132488251
30
0
11
-18.000000268220901
21
-76.000001132488251
31
0
0
ARC
5
115
100
AcDbEntity
8
0
100
AcDbCircle
10
-20.000000298023082
20
-222.00000330805841
30
0
40
146.01370016332612
210
0
220
-0
230
1
100
AcDbArc
50
89.215175397008181
51
111.5724184675874
0
ARC
5
116
100
AcDbEntity
8
0
100
AcDbCircle
10
-77.362638033333837
20
-76.91450289295949
30
0
40
9.9999999999997993
210
0
220
0
230
1
100
AcDbArc
50
240.94539590092248
51
291.57241846758802
0
ARC
5
117
100
AcDbEntity
8
0
100
AcDbCircle
10
-87.40316251315744
20
-77.05622826027232
30
0
40
4.9999999999999547
210
0
220
0
230
1
100
AcDbArc
50
130.74698491349537
51
240.94539590092336
0
ARC
5
118
100
AcDbEntity
8
0
100
AcDbCircle
10
-99.000001549720707
20
-6.9922609823481476
30
0
40
5.0000000000000533
210
0
220
0
230
1
100
AcDbArc
50
180
51
242.47126450023072
0
ARC
5
119
100
AcDbEntity
8
0
100
AcDbCircle
10
-99.000001549720821
20
4.8565820751641446
30
0
40
4.9999999999999476
210
0
220
0
230
1
100
AcDbArc
50
115.16364630640176
51
180
0
ARC
5
120
100
AcDbEntity
8
0
100
AcDbCircle
10
-91.035456294753232
20
82.633779236298011
30
0
40
4.9999999999999387
210
0
220
0
230
1
100
AcDbArc
50
123.69006752597916
51
215.00870138583335
0
ARC
5
121
100
AcDbEntity
8
0
100
AcDbCircle
10
-86.743676142280293
20
85.494966004613246
30
0
40
5.0000000000000018
210
0
220
-0
230
1
100
AcDbArc
50
44.22899278407764
51
123.69006752597953
0
ARC
5
122
100
AcDbEntity
8
0
100
AcDbCircle
10
0.52691550114349894
20
58.34022271569188
30
0
40
17.18511661945098
210
0
220
0
230
1
100
AcDbArc
50
268.24296992836406
51
331.11451357716754
0
ARC
5
123
100
AcDbEntity
8
0
100
AcDbCircle
10
24.329848005455084
20
45.208163859277171
30
0
40
10.00000000000005
210
0
220
0
230
1
100
AcDbArc
50
102.51633897710255
51
151.11451357716751
0
ARC
5
124
100
AcDbEntity
8
0
100
AcDbCircle
10
-4.2846360370906567
20
174.10579756093412
30
0
40
122.03555835799543
210
0
220
0
230
1
100
AcDbArc
50
282.51633897710246
51
315.77100721592234
0
ARC
5
125
100
AcDbEntity
8
0
100
AcDbCircle
10
86.743676142280293
20
85.494966004613246
30
0
40
4.9999999999999929
210
0
220
-0
230
1
100
AcDbArc
50
56.309932474020485
51
135.77100721592234
0
LINE
5
126
100
AcDbEntity
8
0
100
AcDbLine
10
89.517177123406412
20
89.655217476302468
30
0
11
93.808957275879294
21
86.794030707987204
31
0
0
ARC
5
127
100
AcDbEntity
8
0
100
AcDbCircle
10
91.035456294753232
20
82.633779236298011
30
0
40
4.9999999999999343
210
0
220
0
230
1
100
AcDbArc
50
-35.008701385833334
51
56.309932474020847
0
ARC
5
128
100
AcDbEntity
8
0
100
AcDbCircle
10
-39.846154439907835
20
174.30769490507942
30
0
40
164.79393869151039
210
0
220
0
230
1
100
AcDbArc
50
295.84739627310677
51
324.99129861416657
0
ARC
5
129
100
AcDbEntity
8
0
100
AcDbCircle
10
26.250000391155339
20
-150.0000022351748
30
0
40
176.09390513059307
210
0
220
-0
230
1
100
AcDbArc
50
64.836353693598042
51
88.128786402360419
0
ARC
5
130
100
AcDbEntity
8
0
100
AcDbCircle
10
99.000001549720821
20
4.8565820751641446
30
0
40
4.9999999999999467
210
0
220
0
230
1
100
AcDbArc
50
0
51
64.836353693598241
0
LINE
5
131
100
AcDbEntity
8
0
100
AcDbLine
10
104.00000154972076
20
4.8565820751641198
30
0
11
104.00000154972076
21
-6.9922609823481707
31
0
0
ARC
5
132
100
AcDbEntity
8
0
100
AcDbCircle
10
99.000001549720707
20
-6.9922609823481476
30
0
40
5.0000000000000533
210
0
220
0
230
1
100
AcDbArc
50
297.52873549976931
51
360
0
ARC
5
133
100
AcDbEntity
8
0
100
AcDbCircle
10
3.2432432915713605
20
176.72973236320783
30
0
40
212.17897478019864
210
0
220
0
230
1
100
AcDbArc
50
276.70045670835276
51
297.52873549976937
0
ARC
5
134
100
AcDbEntity
8
0
100
AcDbCircle
10
-69.352942209908974
20
-259.0000038593995
30
0
40
245.15830996910037
210
0
220
-0
230
1
100
AcDbArc
50
49.253015086504327
51
66.60284267747312
0
ARC
5
135
100
AcDbEntity
8
0
100
AcDbCircle
10
87.40316251315744
20
-77.05622826027232
30
0
40
4.9999999999999591
210
0
220
0
230
1
100
AcDbArc
50
-60.945395900923366
51
49.253015086504639
0
LINE
5
136
100
AcDbEntity
8
0
100
AcDbLine
10
89.83137716905054
20
-81.427014640879989
30
0
11
82.219067345120123
21
-85.656075654174657
31
0
0
ARC
5
137
100
AcDbEntity
8
0
100
AcDbCircle
10
77.362638033333837
20
-76.91450289295949
30
0
40
9.9999999999997993
210
0
220
0
230
1
100
AcDbArc
50
248.42758153241198
51
299.05460409907755
0
ARC
5
138
100
AcDbEntity
8
0
100
AcDbCircle
10
20.000000298023082
20
-222.00000330805841
30
0
40
146.01370016332615
210
0
220
-0
230
1
100
AcDbArc
50
68.427581532412603
51
90.784824602991833
0
LINE
5
139
100
AcDbEntity
8
0
100
AcDbLine
10
0
20
-76.000001132488251
30
0
11
18.000000268220901
21
-76.000001132488251
31
0
0
ENDSEC
0
SECTION
2
OBJECTS
0
DICTIONARY
5
C
100
AcDbDictionary
3
ACAD_GROUP
350
D
3
ACAD_MLINESTYLE
350
17
0
DICTIONARY
5
D
100
AcDbDictionary
0
DICTIONARY
5
1A
330
C
100
AcDbDictionary
0
DICTIONARY
5
17
100
AcDbDictionary
0
ENDSEC
0
EOF
