0
SECTION
2
HEADER
9
$INSUNITS
70
4
9
$ACADVER
1
AC1014
9
$HANDSEED
5
FFFF
0
ENDSEC
0
SECTION
2
TABLES
0
TABLE
2
VPORT
5
8
100
AcDbSymbolTable
0
ENDTAB
0
TABLE
2
LTYPE
5
5
100
AcDbSymbolTable
0
LTYPE
5
14
100
AcDbSymbolTableRecord
100
AcDbLinetypeTableRecord
2
BYBLOCK
70
0
0
LTYPE
5
15
100
AcDbSymbolTableRecord
100
AcDbLinetypeTableRecord
2
BYLAYER
70
0
0
ENDTAB
0
TABLE
2
LAYER
5
2
100
AcDbSymbolTable
70
2
0
LAYER
5
50
100
AcDbSymbolTableRecord
100
AcDbLayerTableRecord
2
0
70
0
6
CONTINUOUS
0
ENDTAB
0
TABLE
2
STYLE
5
3
100
AcDbSymbolTable
70
1
0
STYLE
5
11
100
AcDbSymbolTableRecord
100
AcDbTextStyleTableRecord
2
STANDARD
70
0
0
ENDTAB
0
TABLE
2
VIEW
5
6
100
AcDbSymbolTable
70
0
0
ENDTAB
0
TABLE
2
UCS
5
7
100
AcDbSymbolTable
70
0
0
ENDTAB
0
TABLE
2
APPID
5
9
100
AcDbSymbolTable
70
2
0
APPID
5
12
100
AcDbSymbolTableRecord
100
AcDbRegAppTableRecord
2
ACAD
70
0
0
ENDTAB
0
TABLE
2
DIMSTYLE
5
A
100
AcDbSymbolTable
70
1
0
ENDTAB
0
TABLE
2
BLOCK_RECORD
5
1
100
AcDbSymbolTable
70
1
0
BLOCK_RECORD
5
1F
100
AcDbSymbolTableRecord
100
AcDbBlockTableRecord
2
*MODEL_SPACE
0
BLOCK_RECORD
5
1B
100
AcDbSymbolTableRecord
100
AcDbBlockTableRecord
2
*PAPER_SPACE
0
ENDTAB
0
ENDSEC
0
SECTION
2
BLOCKS
0
BLOCK
5
20
100
AcDbEntity
100
AcDbBlockBegin
2
*MODEL_SPACE
0
ENDBLK
5
21
100
AcDbEntity
100
AcDbBlockEnd
0
BLOCK
5
1C
100
AcDbEntity
100
AcDbBlockBegin
2
*PAPER_SPACE
0
ENDBLK
5
1D
100
AcDbEntity
100
AcDbBlockEnd
0
ENDSEC
0
SECTION
2
ENTITIES
0
LINE
5
100
100
AcDbEntity
8
0
100
AcDbLine
10
-17.358970520607038
20
54.133628320534783
30
0
11
-15.133169529492658
21
56.834704022538375
31
0
0
LINE
5
101
100
AcDbEntity
8
0
100
AcDbLine
10
-21.217650094897902
20
57.313344022126699
30
0
11
-17.358970520607038
21
54.133628320534783
31
0
0
LINE
5
102
100
AcDbEntity
8
0
100
AcDbLine
10
-18.991849103783558
20
60.014419724130306
30
0
11
-21.217650094897902
21
57.313344022126699
31
0
0
LINE
5
103
100
AcDbEntity
8
0
100
AcDbLine
10
-18.991849103783558
20
60.014419724130306
30
0
11
-21.307056848358048
21
61.922249145085466
31
0
0
ARC
5
104
100
AcDbEntity
8
0
100
AcDbCircle
10
-22.578943128994826
20
60.378777315369135
30
0
40
1.9999999999999829
210
0
220
-0
230
1
100
AcDbArc
50
50.510029428066517
51
140.51002942806775
0
LINE
5
105
100
AcDbEntity
8
0
100
AcDbLine
10
-24.122414958711211
20
61.650663596005906
30
0
11
-34.153603947587435
21
49.477517412575232
31
0
0
ARC
5
106
100
AcDbEntity
8
0
100
AcDbCircle
10
-32.610132117871082
20
48.205631131938446
30
0
40
2.0000000000000036
210
0
220
0
230
1
100
AcDbArc
50
140.51002942806693
51
230.51002942806704
0
LINE
5
107
100
AcDbEntity
8
0
100
AcDbLine
10
-33.882018398507853
20
46.662159302222094
30
0
11
-31.566810653933306
21
44.754329881266948
31
0
0
LINE
5
108
100
AcDbEntity
8
0
100
AcDbLine
10
-29.34100966281898
20
47.455405583270576
30
0
11
-31.566810653933306
21
44.754329881266948
31
0
0
LINE
5
109
100
AcDbEntity
8
0
100
AcDbLine
10
-25.482330088528133
20
44.27568988167863
30
0
11
-29.34100966281898
21
47.455405583270576
31
0
0
LINE
5
110
100
AcDbEntity
8
0
100
AcDbLine
10
-27.708131079642435
20
41.574614179675024
30
0
11
-25.482330088528133
21
44.27568988167863
31
0
0
LINE
5
111
100
AcDbEntity
8
0
100
AcDbLine
10
-27.708131079642435
20
41.574614179675024
30
0
11
-8.4147332081876236
21
25.67603567171507
31
0
0
LINE
5
112
100
AcDbEntity
8
0
100
AcDbLine
10
-8.4147332081876236
20
25.67603567171507
30
0
11
11.032752953044405
21
-16.010836146744278
31
0
0
ARC
5
113
100
AcDbEntity
8
0
100
AcDbCircle
10
12.845225640803495
20
-15.165293270169027
30
0
40
1.9999999999999529
210
0
220
0
230
1
100
AcDbArc
50
205.00968403415865
51
295.00968403416078
0
LINE
5
114
100
AcDbEntity
8
0
100
AcDbLine
10
13.690768517378835
20
-16.977765957928135
30
0
11
28.190550019451663
21
-10.213422945325608
31
0
0
ARC
5
115
100
AcDbEntity
8
0
100
AcDbCircle
10
27.345007142876412
20
-8.4009502575665351
30
0
40
1.9999999999999369
210
-0
220
0
230
1
100
AcDbArc
50
-64.990315965841106
51
25.009684034160284
0
LINE
5
116
100
AcDbEntity
8
0
100
AcDbLine
10
8.0189079162527399
20
37.756409812986284
30
0
11
-15.133169529492658
21
56.834704022538361
31
0
0
LINE
5
117
100
AcDbEntity
8
0
100
AcDbLine
10
29.157479830635484
20
-7.5554073809912303
30
0
11
8.0189079162527399
21
37.756409812986284
31
0
0
CIRCLE
5
118
100
AcDbEntity
8
0
100
AcDbCircle
10
12.382029537153727
20
3.7733968477548885
30
0
40
2.4999999999999973
210
0
220
-0
230
1
0
CIRCLE
5
119
100
AcDbEntity
8
0
100
AcDbCircle
10
6.9279367114720003
20
15.46467044023256
30
0
40
1.5999997368749999
210
0
220
-0
230
1
0
CIRCLE
5
120
100
AcDbEntity
8
0
100
AcDbCircle
10
17.986876395133073
20
-8.0426122370900544
30
0
40
1.5999997368749999
210
0
220
-0
230
1
0
ENDSEC
0
SECTION
2
OBJECTS
0
DICTIONARY
5
C
100
AcDbDictionary
3
ACAD_GROUP
350
D
3
ACAD_MLINESTYLE
350
17
0
DICTIONARY
5
D
100
AcDbDictionary
0
DICTIONARY
5
1A
330
C
100
AcDbDictionary
0
DICTIONARY
5
17
100
AcDbDictionary
0
ENDSEC
0
EOF
