0
SECTION
2
HEADER
9
$INSUNITS
70
4
9
$ACADVER
1
AC1014
9
$HANDSEED
5
FFFF
0
ENDSEC
0
SECTION
2
TABLES
0
TABLE
2
VPORT
5
8
100
AcDbSymbolTable
0
ENDTAB
0
TABLE
2
LTYPE
5
5
100
AcDbSymbolTable
0
LTYPE
5
14
100
AcDbSymbolTableRecord
100
AcDbLinetypeTableRecord
2
BYBLOCK
70
0
0
LTYPE
5
15
100
AcDbSymbolTableRecord
100
AcDbLinetypeTableRecord
2
BYLAYER
70
0
0
ENDTAB
0
TABLE
2
LAYER
5
2
100
AcDbSymbolTable
70
2
0
LAYER
5
50
100
AcDbSymbolTableRecord
100
AcDbLayerTableRecord
2
0
70
0
6
CONTINUOUS
0
ENDTAB
0
TABLE
2
STYLE
5
3
100
AcDbSymbolTable
70
1
0
STYLE
5
11
100
AcDbSymbolTableRecord
100
AcDbTextStyleTableRecord
2
STANDARD
70
0
0
ENDTAB
0
TABLE
2
VIEW
5
6
100
AcDbSymbolTable
70
0
0
ENDTAB
0
TABLE
2
UCS
5
7
100
AcDbSymbolTable
70
0
0
ENDTAB
0
TABLE
2
APPID
5
9
100
AcDbSymbolTable
70
2
0
APPID
5
12
100
AcDbSymbolTableRecord
100
AcDbRegAppTableRecord
2
ACAD
70
0
0
ENDTAB
0
TABLE
2
DIMSTYLE
5
A
100
AcDbSymbolTable
70
1
0
ENDTAB
0
TABLE
2
BLOCK_RECORD
5
1
100
AcDbSymbolTable
70
1
0
BLOCK_RECORD
5
1F
100
AcDbSymbolTableRecord
100
AcDbBlockTableRecord
2
*MODEL_SPACE
0
BLOCK_RECORD
5
1B
100
AcDbSymbolTableRecord
100
AcDbBlockTableRecord
2
*PAPER_SPACE
0
ENDTAB
0
ENDSEC
0
SECTION
2
BLOCKS
0
BLOCK
5
20
100
AcDbEntity
100
AcDbBlockBegin
2
*MODEL_SPACE
0
ENDBLK
5
21
100
AcDbEntity
100
AcDbBlockEnd
0
BLOCK
5
1C
100
AcDbEntity
100
AcDbBlockBegin
2
*PAPER_SPACE
0
ENDBLK
5
1D
100
AcDbEntity
100
AcDbBlockEnd
0
ENDSEC
0
SECTION
2
ENTITIES
0
LWPOLYLINE
5
100
100
AcDbEntity
8
0
100
AcDbPolyline
90
32
70
1
43
0.0
10
391.44111571460797
20
836.6792619899993
42
-0.41421356237309509
10
406.44111571460797
20
821.6792619899993
10
406.44111571460797
20
201.67926198999936
42
-0.41421356237309509
10
391.44111571460797
20
186.67926198999936
10
276.4411157146078
20
186.67926198999936
10
276.4411157146078
20
157.6792619899993
10
180.4411157146078
20
157.6792619899993
10
180.4411157146078
20
186.67926198999936
10
-67.55888428539194
20
186.67926198999936
10
-67.55888428539194
20
157.6792619899993
10
-163.558884285392
20
157.6792619899993
10
-163.558884285392
20
186.67926198999936
10
-378.55888428539203
20
186.67926198999936
42
-0.41421356237309509
10
-393.55888428539203
20
201.67926198999936
10
-393.55888428539203
20
364.6792619899993
10
-422.55888428539203
20
364.6792619899993
10
-422.55888428539203
20
436.67926198999936
10
-393.55888428539203
20
436.67926198999936
10
-393.55888428539203
20
586.6792619899993
10
-422.55888428539203
20
586.6792619899993
10
-422.55888428539203
20
658.67926198999942
10
-393.55888428539203
20
658.67926198999942
10
-393.55888428539203
20
821.6792619899993
42
-0.41421356237309509
10
-378.55888428539203
20
836.6792619899993
10
-163.558884285392
20
836.6792619899993
10
-163.558884285392
20
865.67926198999942
10
-67.55888428539194
20
865.67926198999942
10
-67.55888428539194
20
836.6792619899993
10
180.4411157146078
20
836.6792619899993
10
180.4411157146078
20
865.67926198999942
10
276.4411157146078
20
865.67926198999942
10
276.4411157146078
20
836.6792619899993
0
LWPOLYLINE
5
101
100
AcDbEntity
8
0
100
AcDbPolyline
90
8
70
1
43
0.0
10
-233.55888428539203
20
411.67926198999936
10
-209.55888428539203
20
411.67926198999936
42
-0.99999999999999989
10
-209.55888428539203
20
405.67926198999942
10
-209.55888428539203
20
393.6792619899993
42
-0.99999999999999989
10
-209.55888428539203
20
387.67926198999936
10
-233.55888428539203
20
387.67926198999936
42
-0.99999999999999989
10
-233.55888428539203
20
393.6792619899993
10
-233.55888428539203
20
405.67926198999942
42
-0.99999999999999989
0
LWPOLYLINE
5
102
100
AcDbEntity
8
0
100
AcDbPolyline
90
8
70
1
43
0.0
10
-209.55888428539203
20
617.6792619899993
42
-0.99999999999999989
10
-209.55888428539203
20
611.6792619899993
10
-233.55888428539203
20
611.6792619899993
42
-0.99999999999999989
10
-233.55888428539203
20
617.6792619899993
10
-233.55888428539203
20
629.67926198999942
42
-0.99999999999999989
10
-233.55888428539203
20
635.6792619899993
10
-209.55888428539203
20
635.6792619899993
42
-0.99999999999999989
10
-209.55888428539203
20
629.67926198999942
0
LWPOLYLINE
5
103
100
AcDbEntity
8
0
100
AcDbPolyline
90
8
70
1
43
0.0
10
30.44111571460796
20
405.67926198999942
42
-0.99999999999999989
10
30.44111571460796
20
411.67926198999936
10
54.441115714607946
20
411.67926198999936
42
-0.99999999999999989
10
54.441115714607946
20
405.67926198999942
10
54.441115714607946
20
393.6792619899993
42
-0.99999999999999989
10
54.441115714607946
20
387.67926198999936
10
30.44111571460796
20
387.67926198999936
42
-0.99999999999999989
10
30.44111571460796
20
393.6792619899993
0
LWPOLYLINE
5
104
100
AcDbEntity
8
0
100
AcDbPolyline
90
8
70
1
43
0.0
10
54.441115714607946
20
611.6792619899993
10
30.44111571460796
20
611.6792619899993
42
-0.99999999999999989
10
30.44111571460796
20
617.6792619899993
10
30.44111571460796
20
629.67926198999942
42
-0.99999999999999989
10
30.44111571460796
20
635.6792619899993
10
54.441115714607946
20
635.6792619899993
42
-0.99999999999999989
10
54.441115714607946
20
629.67926198999942
10
54.441115714607946
20
617.6792619899993
42
-0.99999999999999989
0
LWPOLYLINE
5
105
100
AcDbEntity
8
0
100
AcDbPolyline
90
8
70
1
43
0.0
10
-337.55888428539208
20
226.67926198999936
42
-0.99999999999999989
10
-343.55888428539203
20
226.67926198999936
10
-343.55888428539208
20
250.67926198999936
42
-0.99999999999999989
10
-337.55888428539203
20
250.67926198999936
10
-301.55888428539197
20
250.67926198999936
42
-0.99999999999999989
10
-295.55888428539208
20
250.67926198999936
10
-295.55888428539208
20
226.67926198999936
42
-0.99999999999999989
10
-301.55888428539197
20
226.67926198999936
0
LWPOLYLINE
5
106
100
AcDbEntity
8
0
100
AcDbPolyline
90
8
70
1
43
0.0
10
-225.55888428539203
20
226.67926198999936
42
-0.99999999999999989
10
-231.55888428539203
20
226.67926198999936
10
-267.55888428539203
20
226.67926198999936
42
-0.99999999999999989
10
-273.55888428539203
20
226.67926198999936
10
-273.55888428539197
20
250.67926198999936
42
-0.99999999999999989
10
-267.55888428539203
20
250.67926198999936
10
-231.558884285392
20
250.67926198999936
42
-0.99999999999999989
10
-225.55888428539205
20
250.67926198999936
0
LWPOLYLINE
5
107
100
AcDbEntity
8
0
100
AcDbPolyline
90
8
70
1
43
0.0
10
-267.55888428539203
20
796.6792619899993
10
-231.55888428539203
20
796.6792619899993
42
-0.99999999999999989
10
-225.55888428539203
20
796.6792619899993
10
-225.55888428539205
20
772.6792619899993
42
-0.99999999999999989
10
-231.558884285392
20
772.6792619899993
10
-267.55888428539203
20
772.6792619899993
42
-0.99999999999999989
10
-273.55888428539203
20
772.6792619899993
10
-273.55888428539203
20
796.6792619899993
42
-0.99999999999999989
0
LWPOLYLINE
5
108
100
AcDbEntity
8
0
100
AcDbPolyline
90
8
70
1
43
0.0
10
-337.55888428539203
20
796.6792619899993
10
-301.55888428539203
20
796.6792619899993
42
-0.99999999999999989
10
-295.55888428539203
20
796.6792619899993
10
-295.55888428539203
20
772.6792619899993
42
-0.99999999999999989
10
-301.55888428539203
20
772.6792619899993
10
-337.55888428539208
20
772.6792619899993
42
-0.99999999999999989
10
-343.55888428539203
20
772.6792619899993
10
-343.55888428539208
20
796.6792619899993
42
-0.99999999999999989
0
LWPOLYLINE
5
109
100
AcDbEntity
8
0
100
AcDbPolyline
90
8
70
1
43
0.0
10
-319.55888428539203
20
-144.32073801000058
10
-319.55888428539203
20
-156.32073801000047
42
-0.99999999999999989
10
-319.55888428539203
20
-162.3207380100007
10
-343.55888428539203
20
-162.32073801000041
42
-0.99999999999999989
10
-343.55888428539203
20
-156.32073801000075
10
-343.55888428539203
20
-144.32073801000058
42
-0.99999999999999989
10
-343.55888428539203
20
-138.32073801000064
10
-319.55888428539203
20
-138.32073801000064
42
-0.99999999999999989
0
LWPOLYLINE
5
110
100
AcDbEntity
8
0
100
AcDbPolyline
90
8
70
1
43
0.0
10
-343.55888428539203
20
61.679261989999361
42
-0.99999999999999989
10
-343.55888428539203
20
67.679261989999304
10
-343.55888428539203
20
79.679261989999191
42
-0.99999999999999989
10
-343.55888428539203
20
85.679261989999418
10
-319.55888428539203
20
85.679261989999134
42
-0.99999999999999989
10
-319.55888428539203
20
79.679261989999475
10
-319.55888428539203
20
67.679261989999304
42
-0.99999999999999989
10
-319.55888428539203
20
61.679261989999361
0
LWPOLYLINE
5
111
100
AcDbEntity
8
0
100
AcDbPolyline
90
8
70
1
43
0.0
10
-79.55888428539204
20
-162.32073801000055
42
-0.99999999999999989
10
-79.55888428539204
20
-156.32073801000061
10
-79.55888428539204
20
-144.32073801000058
42
-0.99999999999999989
10
-79.55888428539204
20
-138.32073801000064
10
-55.558884285392054
20
-138.32073801000064
42
-0.99999999999999989
10
-55.558884285392054
20
-144.32073801000058
10
-55.558884285392054
20
-156.32073801000047
42
-0.99999999999999989
10
-55.558884285392054
20
-162.3207380100007
0
LWPOLYLINE
5
112
100
AcDbEntity
8
0
100
AcDbPolyline
90
8
70
1
43
0.0
10
-79.55888428539204
20
61.679261989999361
42
-0.99999999999999989
10
-79.55888428539204
20
67.679261989999304
10
-79.55888428539204
20
79.679261989999191
42
-0.99999999999999989
10
-79.55888428539204
20
85.679261989999418
10
-55.558884285392054
20
85.679261989999134
42
-0.99999999999999989
10
-55.558884285392054
20
79.679261989999475
10
-55.558884285392054
20
67.679261989999304
42
-0.99999999999999989
10
-55.558884285392054
20
61.679261989999361
0
LWPOLYLINE
5
113
100
AcDbEntity
8
0
100
AcDbPolyline
90
8
70
1
43
0.0
10
-399.55888428539203
20
86.679261989999361
42
-0.41421356237309509
10
-384.55888428539203
20
101.67926198999936
10
-14.55888428539204
20
101.67926198999936
42
-0.41421356237309509
10
0.44111571460796029
20
86.679261989999361
10
0.44111571460796029
20
-163.32073801000064
42
-0.41421356237309509
10
-14.55888428539204
20
-178.32073801000064
10
-384.55888428539203
20
-178.32073801000064
42
-0.41421356237309509
10
-399.55888428539203
20
-163.32073801000064
0
LWPOLYLINE
5
114
100
AcDbEntity
8
0
100
AcDbPolyline
90
12
70
1
43
0.0
10
54.44111571460823
20
-163.32073801000064
10
78.441115714608145
20
-163.32073801000064
10
78.441115714608145
20
-175.32073801000053
10
178.44111571460815
20
-175.32073801000053
10
178.44111571460815
20
-163.32073801000064
10
207.4411157146082
20
-163.32073801000064
10
207.4411157146082
20
-139.32073801000058
10
178.44111571460815
20
-139.32073801000058
10
178.44111571460815
20
-127.32073801000041
10
78.441115714608145
20
-127.32073801000041
10
78.441115714608145
20
-139.32073801000058
10
54.44111571460823
20
-139.32073801000058
0
LWPOLYLINE
5
115
100
AcDbEntity
8
0
100
AcDbPolyline
90
12
70
1
43
0.0
10
150.44111571460803
20
-47.320738010000412
10
150.44111571460803
20
-23.320738010000355
10
162.44111571460806
20
-23.320738010000355
10
162.44111571460806
20
76.679261989999645
10
150.44111571460803
20
76.679261989999645
10
150.44111571460803
20
105.6792619899997
10
126.44111571460797
20
105.6792619899997
10
126.44111571460797
20
76.679261989999645
10
114.44111571460809
20
76.679261989999645
10
114.44111571460809
20
-23.320738010000355
10
126.44111571460797
20
-23.320738010000355
10
126.44111571460797
20
-47.320738010000412
0
LWPOLYLINE
5
116
100
AcDbEntity
8
0
100
AcDbPolyline
90
12
70
1
43
0.0
10
276.6209701919982
20
-106.50345701818992
10
276.6209701919982
20
-82.503457018189863
10
288.62097019199825
20
-82.503457018189863
10
288.62097019199825
20
17.496542981810137
10
276.6209701919982
20
17.496542981810137
10
276.6209701919982
20
46.496542981810052
10
252.62097019199828
20
46.496542981810052
10
252.62097019199828
20
17.496542981810137
10
240.62097019199825
20
17.496542981810137
10
240.62097019199825
20
-82.503457018189863
10
252.62097019199828
20
-82.503457018189863
10
252.62097019199828
20
-106.50345701818992
0
LWPOLYLINE
5
117
100
AcDbEntity
8
0
100
AcDbPolyline
90
12
70
1
43
0.0
10
365.44111571460792
20
111.67926198999936
10
365.44111571460792
20
82.679261989999304
10
353.44111571460786
20
82.679261989999304
10
353.44111571460786
20
-17.320738010000696
10
365.44111571460792
20
-17.320738010000696
10
365.44111571460792
20
-41.320738010000611
10
389.4411157146078
20
-41.320738010000611
10
389.4411157146078
20
-17.320738010000696
10
401.4411157146078
20
-17.320738010000696
10
401.4411157146078
20
82.679261989999304
10
389.4411157146078
20
82.679261989999304
10
389.4411157146078
20
111.67926198999936
0
LWPOLYLINE
5
118
100
AcDbEntity
8
0
100
AcDbPolyline
90
10
70
1
43
0.0
10
-369.55888428539282
20
-266.32073801000075
42
-0.41421356237309509
10
-354.55888428539282
20
-251.32073801000075
10
359.44111571460769
20
-251.32073801000018
10
359.44111571460769
20
-299.3207380100003
10
330.44111571460758
20
-299.3207380100003
10
330.44111571460758
20
-321.32073801000035
10
359.44111571460769
20
-321.32073801000018
10
359.44111571460769
20
-369.3207380100003
10
-354.55888428539254
20
-369.32073801000087
42
-0.41421356237310053
10
-369.55888428539282
20
-354.32073801000087
0
LWPOLYLINE
5
119
100
AcDbEntity
8
0
100
AcDbPolyline
90
8
70
1
43
0.0
10
-331.55888428539299
20
-286.32073801000075
10
-307.55888428539265
20
-286.32073801000075
42
-0.99999999999999989
10
-307.55888428539265
20
-292.3207380100007
10
-307.55888428539265
20
-328.32073801000081
42
-0.99999999999999989
10
-307.55888428539265
20
-334.3207380100007
10
-331.55888428539299
20
-334.3207380100007
42
-0.99999999999999989
10
-331.55888428539299
20
-328.32073801000081
10
-331.55888428539299
20
-292.3207380100007
42
-0.99999999999999989
0
LWPOLYLINE
5
120
100
AcDbEntity
8
0
100
AcDbPolyline
90
8
70
1
43
0.0
10
-149.55888428539203
20
-289.3207380100007
42
-0.99999999999999989
10
-143.55888428539197
20
-289.3207380100007
10
-143.55888428539188
20
-313.32073801000064
42
-0.99999999999999989
10
-149.55888428539211
20
-313.32073801000064
10
-233.55888428539259
20
-313.32073801000064
42
-0.99999999999999989
10
-239.55888428539282
20
-313.32073801000064
10
-239.55888428539254
20
-289.3207380100007
42
-0.99999999999999989
10
-233.55888428539288
20
-289.3207380100007
0
LWPOLYLINE
5
121
100
AcDbEntity
8
0
100
AcDbPolyline
90
8
70
1
43
0.0
10
194.44111571460766
20
-313.32073801000035
10
110.44111571460732
20
-313.32073801000035
42
-0.99999999999999989
10
104.44111571460766
20
-313.32073801000035
10
104.44111571460738
20
-289.32073801000087
42
-0.99999999999999989
10
110.44111571460761
20
-289.3207380100003
10
194.44111571460766
20
-289.3207380100003
42
-0.99999999999999989
10
200.44111571460761
20
-289.3207380100003
10
200.44111571460761
20
-313.32073801000035
42
-0.99999999999999989
0
LWPOLYLINE
5
122
100
AcDbEntity
8
0
100
AcDbPolyline
90
8
70
1
43
0.0
10
84.941115714607918
20
-481.8207380100003
42
-0.99999999999999989
10
78.941115714607974
20
-481.8207380100003
10
78.941115714608117
20
-457.82073801000024
42
-0.99999999999999989
10
84.941115714607776
20
-457.82073801000024
10
144.94111571460778
20
-457.82073801000024
42
-0.99999999999999989
10
150.941115714608
20
-457.82073801000024
10
150.94111571460772
20
-481.8207380100003
42
-0.99999999999999989
10
144.94111571460806
20
-481.8207380100003
0
LWPOLYLINE
5
123
100
AcDbEntity
8
0
100
AcDbPolyline
90
8
70
1
43
0.0
10
-77.058884285391969
20
-457.82073800999996
42
-0.99999999999999989
10
-71.058884285392026
20
-457.82073800999996
10
-71.058884285391883
20
-481.8207380100003
42
-0.99999999999999989
10
-77.058884285392111
20
-481.8207380100003
10
-137.05888428539239
20
-481.82073800999973
42
-0.99999999999999989
10
-143.05888428539205
20
-481.82073800999973
10
-143.05888428539234
20
-457.82073800999996
42
-0.99999999999999989
10
-137.05888428539211
20
-457.82073800999996
0
LWPOLYLINE
5
124
100
AcDbEntity
8
0
100
AcDbPolyline
90
12
70
1
43
0.0
10
264.94111571460735
20
-503.82073801000018
10
264.94111571460735
20
-493.82073801000018
10
293.94111571460769
20
-493.82073801000018
10
293.94111571460797
20
-445.82073801000035
10
264.9411157146082
20
-445.82073801000035
10
264.9411157146082
20
-435.82073801000035
10
-257.05888428539208
20
-435.8207380099999
10
-257.05888428539208
20
-445.82073801000007
10
-286.0588842853922
20
-445.82073801000007
10
-286.0588842853922
20
-493.82073801000018
10
-257.05888428539208
20
-493.82073801000018
10
-257.05888428539208
20
-503.82073801000018
0
LWPOLYLINE
5
125
100
AcDbEntity
8
0
100
AcDbPolyline
90
10
70
1
43
0.0
10
370.44111571460803
20
-551.3207380100007
42
-0.41421356237309509
10
385.44111571460803
20
-566.3207380100007
10
385.44111571460803
20
-654.32073801000092
42
-0.41421356237309509
10
370.44111571460803
20
-669.32073801000092
10
-343.55888428539203
20
-669.32073801000092
10
-343.55888428539203
20
-621.3207380100007
10
-314.55888428539197
20
-621.3207380100007
10
-314.55888428539197
20
-599.32073801000092
10
-343.55888428539203
20
-599.32073801000092
10
-343.55888428539203
20
-551.3207380100007
0
LWPOLYLINE
5
126
100
AcDbEntity
8
0
100
AcDbPolyline
90
8
70
1
43
0.0
10
347.44111571460792
20
-634.32073801000092
10
323.44111571460786
20
-634.32073801000092
42
-0.99999999999999989
10
323.44111571460786
20
-628.3207380100007
10
323.44111571460786
20
-592.32073801000092
42
-0.99999999999999989
10
323.44111571460786
20
-586.3207380100007
10
347.44111571460792
20
-586.3207380100007
42
-0.99999999999999989
10
347.44111571460792
20
-592.32073801000092
10
347.44111571460792
20
-628.3207380100007
42
-0.99999999999999989
0
LWPOLYLINE
5
127
100
AcDbEntity
8
0
100
AcDbPolyline
90
8
70
1
43
0.0
10
165.44111571460797
20
-631.3207380100007
42
-0.99999999999999989
10
159.44111571460786
20
-631.3207380100007
10
159.44111571460809
20
-607.32073801000092
42
-0.99999999999999989
10
165.44111571460775
20
-607.32073801000092
10
249.4411157146078
20
-607.32073801000092
42
-0.99999999999999989
10
255.44111571460803
20
-607.32073801000092
10
255.44111571460803
20
-631.3207380100007
42
-0.99999999999999989
10
249.4411157146078
20
-631.3207380100007
0
LWPOLYLINE
5
128
100
AcDbEntity
8
0
100
AcDbPolyline
90
8
70
1
43
0.0
10
-178.55888428539188
20
-607.32073801000092
10
-94.558884285391656
20
-607.32073801000092
42
-0.99999999999999989
10
-88.558884285391997
20
-607.32073801000092
10
-88.558884285391713
20
-631.3207380100007
42
-0.99999999999999989
10
-94.55888428539194
20
-631.3207380100007
10
-178.55888428539203
20
-631.3207380100007
42
-0.99999999999999989
10
-184.55888428539197
20
-631.3207380100007
10
-184.55888428539211
20
-607.32073801000092
42
-0.99999999999999989
0
ENDSEC
0
SECTION
2
OBJECTS
0
DICTIONARY
5
C
100
AcDbDictionary
3
ACAD_GROUP
350
D
3
ACAD_MLINESTYLE
350
17
0
DICTIONARY
5
D
100
AcDbDictionary
0
DICTIONARY
5
1A
330
C
100
AcDbDictionary
0
DICTIONARY
5
17
100
AcDbDictionary
0
ENDSEC
0
EOF
