0
SECTION
2
HEADER
9
$INSUNITS
70
4
9
$ACADVER
1
AC1014
9
$HANDSEED
5
FFFF
0
ENDSEC
0
SECTION
2
TABLES
0
TABLE
2
VPORT
5
8
100
AcDbSymbolTable
0
ENDTAB
0
TABLE
2
LTYPE
5
5
100
AcDbSymbolTable
0
LTYPE
5
14
100
AcDbSymbolTableRecord
100
AcDbLinetypeTableRecord
2
BYBLOCK
70
0
0
LTYPE
5
15
100
AcDbSymbolTableRecord
100
AcDbLinetypeTableRecord
2
BYLAYER
70
0
0
ENDTAB
0
TABLE
2
LAYER
5
2
100
AcDbSymbolTable
70
2
0
LAYER
5
50
100
AcDbSymbolTableRecord
100
AcDbLayerTableRecord
2
0
70
0
6
CONTINUOUS
0
ENDTAB
0
TABLE
2
STYLE
5
3
100
AcDbSymbolTable
70
1
0
STYLE
5
11
100
AcDbSymbolTableRecord
100
AcDbTextStyleTableRecord
2
STANDARD
70
0
0
ENDTAB
0
TABLE
2
VIEW
5
6
100
AcDbSymbolTable
70
0
0
ENDTAB
0
TABLE
2
UCS
5
7
100
AcDbSymbolTable
70
0
0
ENDTAB
0
TABLE
2
APPID
5
9
100
AcDbSymbolTable
70
2
0
APPID
5
12
100
AcDbSymbolTableRecord
100
AcDbRegAppTableRecord
2
ACAD
70
0
0
ENDTAB
0
TABLE
2
DIMSTYLE
5
A
100
AcDbSymbolTable
70
1
0
ENDTAB
0
TABLE
2
BLOCK_RECORD
5
1
100
AcDbSymbolTable
70
1
0
BLOCK_RECORD
5
1F
100
AcDbSymbolTableRecord
100
AcDbBlockTableRecord
2
*MODEL_SPACE
0
BLOCK_RECORD
5
1B
100
AcDbSymbolTableRecord
100
AcDbBlockTableRecord
2
*PAPER_SPACE
0
ENDTAB
0
ENDSEC
0
SECTION
2
BLOCKS
0
BLOCK
5
20
100
AcDbEntity
100
AcDbBlockBegin
2
*MODEL_SPACE
0
ENDBLK
5
21
100
AcDbEntity
100
AcDbBlockEnd
0
BLOCK
5
1C
100
AcDbEntity
100
AcDbBlockBegin
2
*PAPER_SPACE
0
ENDBLK
5
1D
100
AcDbEntity
100
AcDbBlockEnd
0
ENDSEC
0
SECTION
2
ENTITIES
0
LINE
5
100
100
AcDbEntity
8
0
100
AcDbLine
10
-40.968731697778722
20
4.5000000000000018
30
0
11
-40.968731697778722
21
-4.5000000000000018
31
5.3327108460179499e-61
0
LINE
5
101
100
AcDbEntity
8
0
100
AcDbLine
10
-40.968731697778722
20
-4.5000000000000018
30
5.3327108460179499e-61
11
-45.168731697778711
21
-4.5000000000000018
31
0
0
LINE
5
102
100
AcDbEntity
8
0
100
AcDbLine
10
-45.168731697778711
20
-4.5000000000000018
30
0
11
-45.168731697778732
21
-9.9312683022213566
31
0
0
LINE
5
103
100
AcDbEntity
8
0
100
AcDbLine
10
-45.168731697778732
20
-9.9312683022213566
30
0
11
45.168731697778604
21
-9.9312683022213566
31
-5.3242335939663265e-31
0
LINE
5
104
100
AcDbEntity
8
0
100
AcDbLine
10
45.168731697778604
20
-9.9312683022213566
30
-5.3242335939663265e-31
11
45.168731697778597
21
-3.6007616640005136
31
2.8025969286496341e-44
0
LINE
5
105
100
AcDbEntity
8
0
100
AcDbLine
10
45.168731697778597
20
-3.6007616640005136
30
2.8025969286496341e-44
11
41.168731697778597
21
-3.6007616640005136
31
0
0
LINE
5
106
100
AcDbEntity
8
0
100
AcDbLine
10
41.168731697778597
20
-3.6007616640005136
30
0
11
41.168731697778597
21
4.9992383359994808
31
1.2684251252346584e-120
0
LINE
5
107
100
AcDbEntity
8
0
100
AcDbLine
10
41.168731697778597
20
4.9992383359994808
30
1.2684251252346584e-120
11
45.168731697778597
21
4.9992383359994808
31
0
0
LINE
5
108
100
AcDbEntity
8
0
100
AcDbLine
10
45.168731697778597
20
4.9992383359994808
30
0
11
45.168731697778597
21
9.9312683022213566
31
7.2743147994954353e-121
0
LINE
5
109
100
AcDbEntity
8
0
100
AcDbLine
10
-40.968731697778722
20
9.9312683022213566
30
0
11
-45.168731697778732
21
9.9312683022213566
31
-1.262177448353606e-30
0
LINE
5
110
100
AcDbEntity
8
0
100
AcDbLine
10
-45.168731697778732
20
9.9312683022213566
30
-1.262177448353606e-30
11
-45.168731697778711
21
4.5000000000000018
31
0
0
LINE
5
111
100
AcDbEntity
8
0
100
AcDbLine
10
-45.168731697778711
20
4.5000000000000018
30
0
11
-40.968731697778722
21
4.5000000000000018
31
0
0
SPLINE
5
112
100
AcDbEntity
8
0
100
AcDbSpline
70
4
71
5
72
12
73
6
74
0
42
0.000000001
43
0.0000000001
44
0.0000000001
40
-0.18439125651603661
40
-0.18439125651603661
40
-0.18439125651603661
40
-0.18439125651603661
40
-0.18439125651603661
40
-0.18439125651603661
40
-0.10578860257837355
40
-0.10578860257837355
40
-0.10578860257837355
40
-0.10578860257837355
40
-0.10578860257837355
40
-0.10578860257837355
41
1
41
1
41
1
41
1
41
1
41
1
10
-41.157615455479288
20
13.131268302221359
30
0
10
-41.10295269750263
20
12.835671416768468
30
0
10
-41.056981569058692
20
12.545208574708706
30
0
10
-41.01941471659562
20
12.259710039676905
30
0
10
-40.990045528611077
20
11.979053768687384
30
0
10
-40.968731748643812
20
11.703155732520729
30
0
0
LINE
5
113
100
AcDbEntity
8
0
100
AcDbLine
10
-40.968731748643812
20
11.703155732520729
30
0
11
-40.968731697778722
21
9.9312683022213566
31
-8.0250947740433306e-38
0
LINE
5
114
100
AcDbEntity
8
0
100
AcDbLine
10
38.968731697778594
20
16.931268302221358
30
1.03243905542356e-120
11
-35.6312683022214
21
16.931268302221369
31
0
0
LINE
5
115
100
AcDbEntity
8
0
100
AcDbLine
10
-35.6312683022214
20
16.931268302221369
30
0
11
-35.6312683022214
21
17.531268302221363
31
-3.5551405640136376e-62
0
LINE
5
116
100
AcDbEntity
8
0
100
AcDbLine
10
-35.6312683022214
20
17.531268302221363
30
-3.5551405640136376e-62
11
38.968731697778594
21
17.531268302221363
31
0
0
LINE
5
117
100
AcDbEntity
8
0
100
AcDbLine
10
38.968731697778594
20
24.531268302221356
30
-4.147663991347221e-61
11
-35.6312683022214
21
24.531268302221356
31
0
0
LINE
5
118
100
AcDbEntity
8
0
100
AcDbLine
10
-35.6312683022214
20
24.531268302221356
30
0
11
-35.6312683022214
21
25.131268302221361
31
-3.5551405640131371e-62
0
LINE
5
119
100
AcDbEntity
8
0
100
AcDbLine
10
-35.6312683022214
20
25.131268302221361
30
-3.5551405640131371e-62
11
38.968731697778594
21
25.131268302221361
31
0
0
LINE
5
120
100
AcDbEntity
8
0
100
AcDbLine
10
38.968731697778594
20
32.131268302221372
30
-4.1476639913473972e-61
11
-35.6312683022214
21
32.131268302221365
31
1.0846837446788856e-31
0
LINE
5
121
100
AcDbEntity
8
0
100
AcDbLine
10
-35.6312683022214
20
32.131268302221365
30
1.0846837446788856e-31
11
-35.6312683022214
21
32.731268302221366
31
-3.5551405640114789e-62
0
LINE
5
122
100
AcDbEntity
8
0
100
AcDbLine
10
-35.6312683022214
20
32.731268302221366
30
-3.5551405640114789e-62
11
38.968731697778594
21
32.731268302221366
31
1.3805065841367763e-31
0
LINE
5
123
100
AcDbEntity
8
0
100
AcDbLine
10
38.968731697778594
20
39.731268302221366
30
-4.1476639913472818e-61
11
-35.631268302221393
21
39.73126830222138
31
0
0
LINE
5
124
100
AcDbEntity
8
0
100
AcDbLine
10
-35.631268302221393
20
39.73126830222138
30
0
11
-35.6312683022214
21
40.331268302221368
31
1.4012984643248171e-44
0
LINE
5
125
100
AcDbEntity
8
0
100
AcDbLine
10
-35.6312683022214
20
40.331268302221368
30
1.4012984643248171e-44
11
38.968731697778594
21
40.331268302221368
31
0
0
LINE
5
126
100
AcDbEntity
8
0
100
AcDbLine
10
38.968731697778594
20
47.331268302221368
30
-4.1476639913472265e-61
11
-35.631268302221393
21
47.331268302221368
31
0
0
LINE
5
127
100
AcDbEntity
8
0
100
AcDbLine
10
-35.631268302221393
20
47.331268302221368
30
0
11
-35.631268302221393
21
47.931268302221369
31
8.8494776179162341e-122
0
LINE
5
128
100
AcDbEntity
8
0
100
AcDbLine
10
-35.631268302221393
20
47.931268302221369
30
8.8494776179162341e-122
11
38.968731697778608
21
47.931268302221369
31
0
0
LINE
5
129
100
AcDbEntity
8
0
100
AcDbLine
10
38.968731697778594
20
54.931268302221369
30
1.4012984643248171e-44
11
-35.6312683022214
21
54.931268302221369
31
0
0
LINE
5
130
100
AcDbEntity
8
0
100
AcDbLine
10
-35.6312683022214
20
54.931268302221369
30
0
11
-35.6312683022214
21
55.531268302221363
31
-3.5551405640136376e-62
0
LINE
5
131
100
AcDbEntity
8
0
100
AcDbLine
10
-35.6312683022214
20
55.531268302221363
30
-3.5551405640136376e-62
11
38.968731697778594
21
55.531268302221363
31
0
0
LINE
5
132
100
AcDbEntity
8
0
100
AcDbLine
10
38.968731697778594
20
62.53126830222137
30
-4.1476639913472866e-61
11
-35.6312683022214
21
62.53126830222137
31
0
0
LINE
5
133
100
AcDbEntity
8
0
100
AcDbLine
10
-35.6312683022214
20
62.53126830222137
30
0
11
-35.6312683022214
21
63.131268302221372
31
8.8494776179161696e-122
0
LINE
5
134
100
AcDbEntity
8
0
100
AcDbLine
10
-35.6312683022214
20
63.131268302221372
30
8.8494776179161696e-122
11
38.968731697778594
21
63.131268302221372
31
0
0
LINE
5
135
100
AcDbEntity
8
0
100
AcDbLine
10
-40.968731697778694
20
67.053391722366058
30
0
11
-40.968731748643833
21
65.701842344862996
31
8.0251031818341165e-38
0
SPLINE
5
136
100
AcDbEntity
8
0
100
AcDbSpline
70
4
71
5
72
13
73
7
74
0
42
0.000000001
43
0.0000000001
44
0.0000000001
40
0.10578860257837444
40
0.10578860257837444
40
0.10578860257837444
40
0.10578860257837444
40
0.10578860257837444
40
0.10578860257837444
40
0.20000000000000001
40
0.28845713831958031
40
0.28845713831958031
40
0.28845713831958031
40
0.28845713831958031
40
0.28845713831958031
40
0.28845713831958031
41
1
41
1
41
1
41
1
41
1
41
1
41
1
10
-40.968731748643819
20
65.701842344862996
30
0
10
-40.994277972523811
20
65.371157078768093
30
0
10
-41.06624790612149
20
64.716730449172587
30
0
10
-41.182643839638004
20
64.036061903661647
30
0
10
-41.346219357476627
20
63.327524932297251
30
0
10
-41.562178040799004
20
62.58804584085653
30
0
10
-41.679773985392437
20
62.222263874858534
30
0
0
SPLINE
5
137
100
AcDbEntity
8
0
100
AcDbSpline
70
0
71
3
72
8
73
4
74
0
42
0.000000001
43
0.0000000001
44
0.0000000001
40
-2.8758911207064712
40
-2.8758911207064712
40
-2.8758911207064712
40
-2.8758911207064712
40
-2.7168926467569796
40
-2.7168926467569796
40
-2.7168926467569796
40
-2.7168926467569796
10
-41.679773985392472
20
62.222263874858534
30
0
10
-41.961766442093349
20
61.258598683979471
30
0
10
-42.326307648131703
20
60.29493349310043
30
0
10
-42.768807115978944
20
59.331268302221368
30
0
0
LINE
5
138
100
AcDbEntity
8
0
100
AcDbLine
10
-42.768807115978944
20
59.33126830222136
30
0
11
28.368731697778617
21
59.331268302221375
31
-6.9086566518692017e-32
0
LINE
5
139
100
AcDbEntity
8
0
100
AcDbLine
10
28.368731697778617
20
59.331268302221375
30
-6.9086566518692017e-32
11
28.368731697778617
21
58.73126830222138
31
3.5551405640130848e-62
0
LINE
5
140
100
AcDbEntity
8
0
100
AcDbLine
10
28.368731697778617
20
58.73126830222138
30
3.5551405640130848e-62
11
-43.054318515819958
21
58.731268302221366
31
-2.2001296946701223e-31
0
SPLINE
5
141
100
AcDbEntity
8
0
100
AcDbSpline
70
0
71
3
72
8
73
4
74
0
42
0.000000001
43
0.0000000001
44
0.0000000001
40
-2.6838939506425228
40
-2.6838939506425228
40
-2.6838939506425228
40
-2.6838939506425228
40
-2.2989091626405207
40
-2.2989091626405207
40
-2.2989091626405207
40
-2.2989091626405207
10
-43.054318515819958
20
58.731268302221366
30
0
10
-44.203332301869203
20
56.397934968888023
30
0
10
-45.806403231671567
20
54.064601635554688
30
0
10
-47.74731648205411
20
51.731268302221345
30
0
0
LINE
5
142
100
AcDbEntity
8
0
100
AcDbLine
10
-47.74731648205411
20
51.731268302221338
30
0
11
28.368731697778617
21
51.731268302221352
31
0
0
LINE
5
143
100
AcDbEntity
8
0
100
AcDbLine
10
28.368731697778617
20
51.731268302221352
30
0
11
28.368731697778617
21
51.131268302221372
31
-8.8494776179159074e-122
0
LINE
5
144
100
AcDbEntity
8
0
100
AcDbLine
10
28.368731697778617
20
51.131268302221372
30
-8.8494776179159074e-122
11
-48.253658653048397
21
51.131268302221372
31
9.4490312734808493e-32
0
SPLINE
5
145
100
AcDbEntity
8
0
100
AcDbSpline
70
0
71
3
72
8
73
4
74
0
42
0.000000001
43
0.0000000001
44
0.0000000001
40
-2.2659104665260639
40
-2.2659104665260639
40
-2.2659104665260639
40
-2.2659104665260639
40
-1.8809256785240631
40
-1.8809256785240631
40
-1.8809256785240631
40
-1.8809256785240631
10
-48.253658653048397
20
51.131268302221358
30
0
10
-50.25060491675071
20
48.797934968888029
30
0
10
-52.571301939181964
20
46.464601635554708
30
0
10
-55.047510505790981
20
44.131268302221372
30
0
0
LINE
5
146
100
AcDbEntity
8
0
100
AcDbLine
10
-55.047510505790981
20
44.131268302221365
30
0
11
28.368731697778607
21
44.131268302221365
31
3.3538889070197137e-32
0
LINE
5
147
100
AcDbEntity
8
0
100
AcDbLine
10
28.368731697778607
20
44.131268302221365
30
3.3538889070197137e-32
11
28.368731697778607
21
43.53126830222137
31
3.5551405640125321e-62
0
LINE
5
148
100
AcDbEntity
8
0
100
AcDbLine
10
28.368731697778607
20
43.53126830222137
30
3.5551405640125321e-62
11
-55.687500783271481
21
43.53126830222137
31
0
0
SPLINE
5
149
100
AcDbEntity
8
0
100
AcDbSpline
70
0
71
3
72
8
73
4
74
0
42
0.000000001
43
0.0000000001
44
0.0000000001
40
-1.8479269824096056
40
-1.8479269824096056
40
-1.8479269824096056
40
-1.8479269824096056
40
-1.5744684561240998
40
-1.5744684561240998
40
-1.5744684561240998
40
-1.5744684561240998
10
-55.687500783271481
20
43.531268302221363
30
0
10
-57.464015729948336
20
41.873878414226972
30
0
10
-59.309886467813591
20
40.216488526232581
30
0
10
-61.156861814495215
20
38.55909863823819
30
0
0
SPLINE
5
150
100
AcDbEntity
8
0
100
AcDbSpline
70
4
71
5
72
12
73
6
74
0
42
0.000000001
43
0.0000000001
44
0.0000000001
40
-0.9972307471471612
40
-0.9972307471471612
40
-0.9972307471471612
40
-0.9972307471471612
40
-0.9972307471471612
40
-0.9972307471471612
40
-0.95694323826087579
40
-0.95694323826087579
40
-0.95694323826087579
40
-0.95694323826087579
40
-0.95694323826087579
40
-0.95694323826087579
41
1
41
1
41
1
41
1
41
1
41
1
10
-61.156861814495215
20
38.55909863823819
30
0
10
-60.680244682593994
20
38.142608806949731
30
0
10
-60.212891595812337
20
37.731591138212778
30
0
10
-59.754797379766231
20
37.326042575579514
30
0
10
-59.305931575225259
20
36.925945127140231
30
0
10
-58.866242563294698
20
36.531268302221356
30
0
0
LINE
5
151
100
AcDbEntity
8
0
100
AcDbLine
10
-58.866242563294698
20
36.531268302221356
30
0
11
28.368731697778607
21
36.531268302221363
31
-7.4901177129948916e-32
0
LINE
5
152
100
AcDbEntity
8
0
100
AcDbLine
10
28.368731697778607
20
36.531268302221363
30
-7.4901177129948916e-32
11
28.368731697778607
21
35.931268302221369
31
3.5551405640125321e-62
0
LINE
5
153
100
AcDbEntity
8
0
100
AcDbLine
10
28.368731697778607
20
35.931268302221369
30
3.5551405640125321e-62
11
-58.200758484331232
21
35.931268302221369
31
1.1028562773653641e-32
0
SPLINE
5
154
100
AcDbEntity
8
0
100
AcDbSpline
70
4
71
5
72
13
73
7
74
0
42
0.000000001
43
0.0000000001
44
0.0000000001
40
-0.94459011890814615
40
-0.94459011890814615
40
-0.94459011890814615
40
-0.94459011890814615
40
-0.94459011890814615
40
-0.94459011890814615
40
-0.80000000000000004
40
-0.78174984311827944
40
-0.78174984311827944
40
-0.78174984311827944
40
-0.78174984311827944
40
-0.78174984311827944
40
-0.78174984311827944
41
1
41
1
41
1
41
1
41
1
41
1
41
1
10
-58.200758484331246
20
35.931268302221369
30
0
10
-56.663015380816056
20
34.538584226842417
30
0
10
-55.063526985201314
20
33.048292381320799
30
0
10
-53.609327438483206
20
31.643820950944441
30
0
10
-52.29146181762551
20
30.319880367942631
30
0
10
-51.099616702461262
20
29.070378616259376
30
0
10
-50.967610076637946
20
28.931268302221362
30
0
0
LINE
5
155
100
AcDbEntity
8
0
100
AcDbLine
10
-50.967610076637939
20
28.931268302221362
30
0
11
28.368731697778607
21
28.931268302221362
31
6.099192565598638e-32
0
LINE
5
156
100
AcDbEntity
8
0
100
AcDbLine
10
28.368731697778607
20
28.931268302221362
30
6.099192565598638e-32
11
28.368731697778607
21
28.331268302221364
31
-8.8494776179161696e-122
0
LINE
5
157
100
AcDbEntity
8
0
100
AcDbLine
10
28.368731697778607
20
28.331268302221364
30
-8.8494776179161696e-122
11
-50.403454668142615
21
28.331268302221375
31
3.5003913408359284e-32
0
SPLINE
5
158
100
AcDbEntity
8
0
100
AcDbSpline
70
4
71
5
72
13
73
7
74
0
42
0.000000001
43
0.0000000001
44
0.0000000001
40
-0.76582322667500602
40
-0.76582322667500602
40
-0.76582322667500602
40
-0.76582322667500602
40
-0.76582322667500602
40
-0.76582322667500602
40
-0.60000000000000009
40
-0.54721852224175249
40
-0.54721852224175249
40
-0.54721852224175249
40
-0.54721852224175249
40
-0.54721852224175249
40
-0.54721852224175249
41
1
41
1
41
1
41
1
41
1
41
1
41
1
10
-50.403454668142615
20
28.331268302221375
30
0
10
-49.253150267917938
20
27.096311681377443
30
0
10
-47.903150196844592
20
25.566586378736169
30
0
10
-46.753043997774057
20
24.154936036496409
30
0
10
-45.774775427246503
20
22.844788161452875
30
0
10
-44.943892528218463
20
21.621699270017327
30
0
10
-44.751540348694803
20
21.331268302221371
30
0
0
LINE
5
159
100
AcDbEntity
8
0
100
AcDbLine
10
-44.751540348694803
20
21.331268302221371
30
0
11
28.368731697778607
21
21.33126830222136
31
7.4593953976518086e-33
0
LINE
5
160
100
AcDbEntity
8
0
100
AcDbLine
10
28.368731697778607
20
21.33126830222136
30
7.4593953976518086e-33
11
28.368731697778607
21
20.731268302221359
31
3.5551405640109262e-62
0
LINE
5
161
100
AcDbEntity
8
0
100
AcDbLine
10
28.368731697778607
20
20.731268302221359
30
3.5551405640109262e-62
11
-44.362844138408832
21
20.731268302221359
31
1.188432146427051e-31
0
SPLINE
5
162
100
AcDbEntity
8
0
100
AcDbSpline
70
4
71
5
72
13
73
7
74
0
42
0.000000001
43
0.0000000001
44
0.0000000001
40
-0.52510409210843934
40
-0.52510409210843934
40
-0.52510409210843934
40
-0.52510409210843934
40
-0.52510409210843934
40
-0.52510409210843934
40
-0.40000000000000002
40
-0.2158569818609086
40
-0.2158569818609086
40
-0.2158569818609086
40
-0.2158569818609086
40
-0.2158569818609086
40
-0.2158569818609086
41
1
41
1
41
1
41
1
41
1
41
1
41
1
10
-44.362844138408832
20
20.731268302221359
30
0
10
-43.938931726893927
20
20.061786471957834
30
0
10
-43.000137804995056
20
18.471316034022067
30
0
10
-42.305133022133845
20
17.02484897472754
30
0
10
-41.797153871929027
20
15.68885575812045
30
0
10
-41.442510302449207
20
14.443436066557647
30
0
10
-41.281150036431733
20
13.731268302221356
30
0
0
LINE
5
163
100
AcDbEntity
8
0
100
AcDbLine
10
-41.28115003643174
20
13.731268302221356
30
0
11
28.368731697778607
21
13.731268302221356
31
0
0
LINE
5
164
100
AcDbEntity
8
0
100
AcDbLine
10
28.368731697778607
20
13.731268302221356
30
0
11
28.368731697778607
21
13.131268302221359
31
-8.8494776179161696e-122
0
LINE
5
165
100
AcDbEntity
8
0
100
AcDbLine
10
28.368731697778607
20
13.131268302221359
30
-8.8494776179161696e-122
11
-41.157615455479288
21
13.131268302221359
31
0
0
LINE
5
166
100
AcDbEntity
8
0
100
AcDbLine
10
45.168731697778597
20
12.131268302221345
30
0
11
41.168731697778597
21
12.131268302221345
31
0
0
LINE
5
167
100
AcDbEntity
8
0
100
AcDbLine
10
41.168731697778597
20
12.131268302221345
30
0
11
41.168731697778597
21
14.731268302221343
31
-1.5405609110719217e-61
0
LINE
5
168
100
AcDbEntity
8
0
100
AcDbLine
10
41.168731697778597
20
14.731268302221343
30
-1.5405609110719217e-61
11
45.168731697778597
21
14.731268302221343
31
0
0
LINE
5
169
100
AcDbEntity
8
0
100
AcDbLine
10
45.168731697778597
20
14.731268302221343
30
0
11
45.168731697778597
21
16.931268302221376
31
-1.3035515401376986e-61
0
LINE
5
170
100
AcDbEntity
8
0
100
AcDbLine
10
45.168731697778597
20
16.931268302221376
30
-1.3035515401376986e-61
11
38.968731697778594
21
16.931268302221358
31
0
0
LINE
5
171
100
AcDbEntity
8
0
100
AcDbLine
10
45.168731697778597
20
9.9312683022213566
30
0
11
45.168731697778597
21
12.131268302221345
31
0
0
LINE
5
172
100
AcDbEntity
8
0
100
AcDbLine
10
45.168731697778597
20
19.731268302221352
30
0
11
41.168731697778597
21
19.731268302221345
31
0
0
LINE
5
173
100
AcDbEntity
8
0
100
AcDbLine
10
41.168731697778597
20
19.731268302221345
30
0
11
41.168731697778597
21
22.331268302221339
31
-1.5405609110719217e-61
0
LINE
5
174
100
AcDbEntity
8
0
100
AcDbLine
10
41.168731697778597
20
22.331268302221339
30
-1.5405609110719217e-61
11
45.168731697778597
21
22.331268302221339
31
0
0
LINE
5
175
100
AcDbEntity
8
0
100
AcDbLine
10
45.168731697778597
20
22.331268302221339
30
0
11
45.168731697778597
21
24.531268302221363
31
-1.3035515401378036e-61
0
LINE
5
176
100
AcDbEntity
8
0
100
AcDbLine
10
45.168731697778597
20
24.531268302221363
30
-1.3035515401378036e-61
11
38.968731697778594
21
24.531268302221356
31
-7.8886090522099499e-32
0
LINE
5
177
100
AcDbEntity
8
0
100
AcDbLine
10
38.968731697778594
20
17.531268302221363
30
4.147663991347221e-61
11
45.168731697778597
21
17.531268302221363
31
0
0
LINE
5
178
100
AcDbEntity
8
0
100
AcDbLine
10
45.168731697778597
20
17.531268302221363
30
0
11
45.168731697778597
21
19.731268302221352
31
0
0
LINE
5
179
100
AcDbEntity
8
0
100
AcDbLine
10
45.168731697778597
20
27.331268302221339
30
0
11
41.168731697778597
21
27.331268302221339
31
0
0
LINE
5
180
100
AcDbEntity
8
0
100
AcDbLine
10
41.168731697778597
20
27.331268302221339
30
0
11
41.168731697778576
21
29.931268302221348
31
0
0
LINE
5
181
100
AcDbEntity
8
0
100
AcDbLine
10
41.168731697778576
20
29.931268302221348
30
0
11
45.168731697778583
21
29.931268302221348
31
0
0
LINE
5
182
100
AcDbEntity
8
0
100
AcDbLine
10
45.168731697778583
20
29.931268302221348
30
0
11
45.168731697778597
21
32.131268302221372
31
-2.8025969286496341e-44
0
LINE
5
183
100
AcDbEntity
8
0
100
AcDbLine
10
45.168731697778597
20
32.131268302221372
30
-2.8025969286496341e-44
11
38.968731697778594
21
32.131268302221372
31
-7.8886090522099499e-32
0
LINE
5
184
100
AcDbEntity
8
0
100
AcDbLine
10
38.968731697778594
20
25.131268302221361
30
4.1476639913473972e-61
11
45.168731697778597
21
25.131268302221361
31
0
0
LINE
5
185
100
AcDbEntity
8
0
100
AcDbLine
10
45.168731697778597
20
25.131268302221361
30
0
11
45.168731697778597
21
27.331268302221339
31
0
0
LINE
5
186
100
AcDbEntity
8
0
100
AcDbLine
10
45.168731697778583
20
34.931268302221348
30
0
11
41.168731697778576
21
34.931268302221355
31
-9.860761315262087e-32
0
LINE
5
187
100
AcDbEntity
8
0
100
AcDbLine
10
41.168731697778576
20
34.931268302221355
30
-9.860761315262087e-32
11
41.168731697778576
21
37.531268302221356
31
-1.540560911071977e-61
0
LINE
5
188
100
AcDbEntity
8
0
100
AcDbLine
10
41.168731697778576
20
37.531268302221356
30
-1.540560911071977e-61
11
45.168731697778583
21
37.531268302221349
31
9.860761315262087e-32
0
LINE
5
189
100
AcDbEntity
8
0
100
AcDbLine
10
45.168731697778583
20
37.531268302221349
30
9.860761315262087e-32
11
45.168731697778583
21
39.73126830222138
31
-1.3035515401375881e-61
0
LINE
5
190
100
AcDbEntity
8
0
100
AcDbLine
10
45.168731697778583
20
39.73126830222138
30
-1.3035515401375881e-61
11
38.968731697778594
21
39.731268302221366
31
0
0
LINE
5
191
100
AcDbEntity
8
0
100
AcDbLine
10
38.968731697778594
20
32.731268302221366
30
4.1476639913472818e-61
11
45.168731697778597
21
32.731268302221366
31
0
0
LINE
5
192
100
AcDbEntity
8
0
100
AcDbLine
10
45.168731697778597
20
32.731268302221366
30
0
11
45.168731697778583
21
34.931268302221348
31
0
0
LINE
5
193
100
AcDbEntity
8
0
100
AcDbLine
10
45.168731697778583
20
42.531268302221349
30
0
11
41.168731697778554
21
42.531268302221356
31
-9.8607613152592845e-32
0
LINE
5
194
100
AcDbEntity
8
0
100
AcDbLine
10
41.168731697778554
20
42.531268302221356
30
-9.8607613152592845e-32
11
41.168731697778576
21
45.131268302221351
31
0
0
LINE
5
195
100
AcDbEntity
8
0
100
AcDbLine
10
41.168731697778576
20
45.131268302221351
30
0
11
45.168731697778597
21
45.131268302221351
31
0
0
LINE
5
196
100
AcDbEntity
8
0
100
AcDbLine
10
45.168731697778597
20
45.131268302221351
30
0
11
45.168731697778583
21
47.331268302221375
31
2.8025969286496341e-44
0
LINE
5
197
100
AcDbEntity
8
0
100
AcDbLine
10
45.168731697778583
20
47.331268302221375
30
2.8025969286496341e-44
11
38.968731697778594
21
47.331268302221368
31
-7.8886090522127525e-32
0
LINE
5
198
100
AcDbEntity
8
0
100
AcDbLine
10
38.968731697778594
20
40.331268302221368
30
4.1476639913472265e-61
11
45.168731697778583
21
40.331268302221368
31
0
0
LINE
5
199
100
AcDbEntity
8
0
100
AcDbLine
10
45.168731697778583
20
40.331268302221368
30
0
11
45.168731697778583
21
42.531268302221349
31
0
0
LINE
5
200
100
AcDbEntity
8
0
100
AcDbLine
10
45.168731697778597
20
50.131268302221351
30
0
11
41.168731697778597
21
50.131268302221343
31
-9.860761315262087e-32
0
LINE
5
201
100
AcDbEntity
8
0
100
AcDbLine
10
41.168731697778597
20
50.131268302221343
30
-9.860761315262087e-32
11
41.168731697778597
21
52.731268302221331
31
-1.5405609110719164e-61
0
LINE
5
202
100
AcDbEntity
8
0
100
AcDbLine
10
41.168731697778597
20
52.731268302221331
30
-1.5405609110719164e-61
11
45.168731697778597
21
52.731268302221331
31
9.860761315262087e-32
0
LINE
5
203
100
AcDbEntity
8
0
100
AcDbLine
10
45.168731697778597
20
52.731268302221331
30
9.860761315262087e-32
11
45.168731697778597
21
54.931268302221383
31
-1.3035515401376539e-61
0
LINE
5
204
100
AcDbEntity
8
0
100
AcDbLine
10
45.168731697778597
20
54.931268302221383
30
-1.3035515401376539e-61
11
38.968731697778594
21
54.931268302221369
31
-7.8886090522099499e-32
0
LINE
5
205
100
AcDbEntity
8
0
100
AcDbLine
10
38.968731697778608
20
47.931268302221369
30
-1.4012984643248171e-44
11
45.168731697778583
21
47.931268302221369
31
0
0
LINE
5
206
100
AcDbEntity
8
0
100
AcDbLine
10
45.168731697778583
20
47.931268302221369
30
0
11
45.168731697778597
21
50.131268302221351
31
0
0
LINE
5
207
100
AcDbEntity
8
0
100
AcDbLine
10
45.168731697778597
20
57.731268302221366
30
0
11
41.168731697778597
21
57.731268302221359
31
0
0
LINE
5
208
100
AcDbEntity
8
0
100
AcDbLine
10
41.168731697778597
20
57.731268302221359
30
0
11
41.168731697778597
21
60.33126830222136
31
3.8347736344303619e-121
0
LINE
5
209
100
AcDbEntity
8
0
100
AcDbLine
10
41.168731697778597
20
60.33126830222136
30
3.8347736344303619e-121
11
45.168731697778597
21
60.331268302221368
31
9.860761315262087e-32
0
LINE
5
210
100
AcDbEntity
8
0
100
AcDbLine
10
45.168731697778597
20
60.331268302221368
30
9.860761315262087e-32
11
45.168731697778597
21
62.531268302221378
31
-1.3035515401376879e-61
0
LINE
5
211
100
AcDbEntity
8
0
100
AcDbLine
10
45.168731697778597
20
62.531268302221378
30
-1.3035515401376879e-61
11
38.968731697778594
21
62.53126830222137
31
0
0
LINE
5
212
100
AcDbEntity
8
0
100
AcDbLine
10
38.968731697778594
20
55.531268302221363
30
4.1476639913472866e-61
11
45.168731697778597
21
55.531268302221378
31
7.8886090522099499e-32
0
LINE
5
213
100
AcDbEntity
8
0
100
AcDbLine
10
45.168731697778597
20
55.531268302221378
30
7.8886090522099499e-32
11
45.168731697778597
21
57.731268302221366
31
0
0
LINE
5
214
100
AcDbEntity
8
0
100
AcDbLine
10
38.968731697778594
20
63.131268302221372
30
2.3239500113363681e-61
11
45.168731697778611
21
63.131268302221379
31
0
0
LINE
5
215
100
AcDbEntity
8
0
100
AcDbLine
10
45.168731697778611
20
63.131268302221379
30
0
11
45.168731697778611
21
67.053391722366072
31
-2.3239500113363681e-61
0
LINE
5
216
100
AcDbEntity
8
0
100
AcDbLine
10
-40.968731697778686
20
86.915928326808753
30
0
11
-40.968731697778694
21
81.684660024587401
31
1.4012984643248171e-44
0
LINE
5
217
100
AcDbEntity
8
0
100
AcDbLine
10
-40.968731697778694
20
81.684660024587401
30
1.4012984643248171e-44
11
-45.168731697778696
21
81.684660024587416
31
-2.9582283945789064e-32
0
LINE
5
218
100
AcDbEntity
8
0
100
AcDbLine
10
-45.168731697778696
20
81.684660024587416
30
-2.9582283945789064e-32
11
-45.168731697778696
21
72.284660024587424
31
5.5697202169522471e-61
0
LINE
5
219
100
AcDbEntity
8
0
100
AcDbLine
10
-45.168731697778696
20
72.284660024587424
30
5.5697202169522471e-61
11
-40.968731697778694
21
72.28466002458741
31
2.9582283945789064e-32
0
LINE
5
220
100
AcDbEntity
8
0
100
AcDbLine
10
-40.968731697778694
20
72.28466002458741
30
2.9582283945789064e-32
11
-40.968731697778694
21
67.053391722366058
31
3.0996490237421139e-61
0
LINE
5
221
100
AcDbEntity
8
0
100
AcDbLine
10
45.168731697778611
20
67.053391722366072
30
0
11
45.168731697778597
21
71.98542168858792
31
0
0
LINE
5
222
100
AcDbEntity
8
0
100
AcDbLine
10
45.168731697778597
20
71.98542168858792
30
0
11
41.168731697778597
21
71.985421688587905
31
3.9443045261051151e-31
0
LINE
5
223
100
AcDbEntity
8
0
100
AcDbLine
10
41.168731697778597
20
71.985421688587905
30
3.9443045261051151e-31
11
41.168731697778597
21
80.585421688587914
31
-5.0957014750840382e-61
0
LINE
5
224
100
AcDbEntity
8
0
100
AcDbLine
10
41.168731697778597
20
80.585421688587914
30
-5.0957014750840382e-61
11
45.168731697778597
21
80.585421688587928
31
0
0
LINE
5
225
100
AcDbEntity
8
0
100
AcDbLine
10
45.168731697778597
20
80.585421688587928
30
0
11
45.168731697778611
21
86.915928326808768
31
-2.8025969286496341e-44
0
LINE
5
226
100
AcDbEntity
8
0
100
AcDbLine
10
45.168731697778611
20
86.915928326808768
30
-2.8025969286496341e-44
11
-40.968731697778686
21
86.915928326808753
31
0
0
ENDSEC
0
SECTION
2
OBJECTS
0
DICTIONARY
5
C
100
AcDbDictionary
3
ACAD_GROUP
350
D
3
ACAD_MLINESTYLE
350
17
0
DICTIONARY
5
D
100
AcDbDictionary
0
DICTIONARY
5
1A
330
C
100
AcDbDictionary
0
DICTIONARY
5
17
100
AcDbDictionary
0
ENDSEC
0
EOF
