0
SECTION
2
HEADER
9
$INSUNITS
70
4
9
$ACADVER
1
AC1014
9
$HANDSEED
5
FFFF
0
ENDSEC
0
SECTION
2
TABLES
0
TABLE
2
VPORT
5
8
100
AcDbSymbolTable
0
ENDTAB
0
TABLE
2
LTYPE
5
5
100
AcDbSymbolTable
0
LTYPE
5
14
100
AcDbSymbolTableRecord
100
AcDbLinetypeTableRecord
2
BYBLOCK
70
0
0
LTYPE
5
15
100
AcDbSymbolTableRecord
100
AcDbLinetypeTableRecord
2
BYLAYER
70
0
0
ENDTAB
0
TABLE
2
LAYER
5
2
100
AcDbSymbolTable
70
2
0
LAYER
5
50
100
AcDbSymbolTableRecord
100
AcDbLayerTableRecord
2
0
70
0
6
CONTINUOUS
0
ENDTAB
0
TABLE
2
STYLE
5
3
100
AcDbSymbolTable
70
1
0
STYLE
5
11
100
AcDbSymbolTableRecord
100
AcDbTextStyleTableRecord
2
STANDARD
70
0
0
ENDTAB
0
TABLE
2
VIEW
5
6
100
AcDbSymbolTable
70
0
0
ENDTAB
0
TABLE
2
UCS
5
7
100
AcDbSymbolTable
70
0
0
ENDTAB
0
TABLE
2
APPID
5
9
100
AcDbSymbolTable
70
2
0
APPID
5
12
100
AcDbSymbolTableRecord
100
AcDbRegAppTableRecord
2
ACAD
70
0
0
ENDTAB
0
TABLE
2
DIMSTYLE
5
A
100
AcDbSymbolTable
70
1
0
ENDTAB
0
TABLE
2
BLOCK_RECORD
5
1
100
AcDbSymbolTable
70
1
0
BLOCK_RECORD
5
1F
100
AcDbSymbolTableRecord
100
AcDbBlockTableRecord
2
*MODEL_SPACE
0
BLOCK_RECORD
5
1B
100
AcDbSymbolTableRecord
100
AcDbBlockTableRecord
2
*PAPER_SPACE
0
ENDTAB
0
ENDSEC
0
SECTION
2
BLOCKS
0
BLOCK
5
20
100
AcDbEntity
100
AcDbBlockBegin
2
*MODEL_SPACE
0
ENDBLK
5
21
100
AcDbEntity
100
AcDbBlockEnd
0
BLOCK
5
1C
100
AcDbEntity
100
AcDbBlockBegin
2
*PAPER_SPACE
0
ENDBLK
5
1D
100
AcDbEntity
100
AcDbBlockEnd
0
ENDSEC
0
SECTION
2
ENTITIES
0
LINE
5
100
100
AcDbEntity
8
0
100
AcDbLine
10
40.968731697778637
20
-4.5000000000000018
30
0
11
40.968731697778637
21
4.5000000000000071
31
0
0
LINE
5
101
100
AcDbEntity
8
0
100
AcDbLine
10
40.968731697778637
20
4.5000000000000071
30
0
11
45.168731697778611
21
4.5000000000000027
31
0
0
LINE
5
102
100
AcDbEntity
8
0
100
AcDbLine
10
45.168731697778611
20
4.5000000000000027
30
0
11
45.168731697778632
21
9.9312683022213601
31
0
0
LINE
5
103
100
AcDbEntity
8
0
100
AcDbLine
10
45.168731697778632
20
9.9312683022213601
30
0
11
-45.168731697778597
21
9.9312683022213637
31
0
0
LINE
5
104
100
AcDbEntity
8
0
100
AcDbLine
10
-45.168731697778597
20
9.9312683022213637
30
0
11
-45.168731697778583
21
3.6007616640005091
31
0
0
LINE
5
105
100
AcDbEntity
8
0
100
AcDbLine
10
-45.168731697778583
20
3.6007616640005091
30
0
11
-41.168731697778597
21
3.6007616640005051
31
0
0
LINE
5
106
100
AcDbEntity
8
0
100
AcDbLine
10
-41.168731697778597
20
3.6007616640005051
30
0
11
-41.168731697778611
21
-4.999238335999495
31
0
0
LINE
5
107
100
AcDbEntity
8
0
100
AcDbLine
10
-41.168731697778611
20
-4.999238335999495
30
0
11
-45.168731697778611
21
-4.9992383359994905
31
0
0
LINE
5
108
100
AcDbEntity
8
0
100
AcDbLine
10
-45.168731697778611
20
-4.9992383359994905
30
0
11
-45.168731697778597
21
-9.931268302221369
31
0
0
LINE
5
109
100
AcDbEntity
8
0
100
AcDbLine
10
40.968731697778644
20
-9.9312683022213655
30
0
11
45.168731697778632
21
-9.9312683022213655
31
0
0
LINE
5
110
100
AcDbEntity
8
0
100
AcDbLine
10
45.168731697778632
20
-9.9312683022213655
30
0
11
45.168731697778611
21
-4.5000000000000071
31
0
0
LINE
5
111
100
AcDbEntity
8
0
100
AcDbLine
10
45.168731697778611
20
-4.5000000000000071
30
0
11
40.968731697778637
21
-4.5000000000000018
31
0
0
LINE
5
112
100
AcDbEntity
8
0
100
AcDbLine
10
-45.168731697778597
20
-12.131268302221363
30
0
11
-41.168731697778597
21
-12.131268302221363
31
0
0
LINE
5
113
100
AcDbEntity
8
0
100
AcDbLine
10
-41.168731697778597
20
-12.131268302221363
30
0
11
-41.168731697778611
21
-14.731268302221363
31
0
0
LINE
5
114
100
AcDbEntity
8
0
100
AcDbLine
10
-41.168731697778611
20
-14.731268302221363
30
0
11
-45.168731697778611
21
-14.731268302221361
31
0
0
LINE
5
115
100
AcDbEntity
8
0
100
AcDbLine
10
-45.168731697778611
20
-14.731268302221361
30
0
11
-45.168731697778597
21
-16.931268302221397
31
0
0
LINE
5
116
100
AcDbEntity
8
0
100
AcDbLine
10
-45.168731697778597
20
-16.931268302221397
30
0
11
-38.968731697778608
21
-16.931268302221376
31
0
0
LINE
5
117
100
AcDbEntity
8
0
100
AcDbLine
10
-45.168731697778583
20
-9.9312683022213761
30
0
11
-45.168731697778597
21
-12.131268302221363
31
0
0
LINE
5
118
100
AcDbEntity
8
0
100
AcDbLine
10
-45.168731697778597
20
-19.73126830222137
30
0
11
-41.168731697778597
21
-19.731268302221359
31
0
0
LINE
5
119
100
AcDbEntity
8
0
100
AcDbLine
10
-41.168731697778597
20
-19.731268302221359
30
0
11
-41.168731697778611
21
-22.33126830222136
31
0
0
LINE
5
120
100
AcDbEntity
8
0
100
AcDbLine
10
-41.168731697778611
20
-22.33126830222136
30
0
11
-45.168731697778611
21
-22.331268302221368
31
0
0
LINE
5
121
100
AcDbEntity
8
0
100
AcDbLine
10
-45.168731697778611
20
-22.331268302221368
30
0
11
-45.168731697778597
21
-24.531268302221392
31
0
0
LINE
5
122
100
AcDbEntity
8
0
100
AcDbLine
10
-45.168731697778597
20
-24.531268302221392
30
0
11
-38.968731697778608
21
-24.531268302221385
31
0
0
LINE
5
123
100
AcDbEntity
8
0
100
AcDbLine
10
-38.968731697778587
20
-17.531268302221385
30
0
11
-45.168731697778583
21
-17.531268302221381
31
0
0
LINE
5
124
100
AcDbEntity
8
0
100
AcDbLine
10
-45.168731697778583
20
-17.531268302221381
30
0
11
-45.168731697778597
21
-19.73126830222137
31
0
0
LINE
5
125
100
AcDbEntity
8
0
100
AcDbLine
10
-45.168731697778597
20
-27.331268302221368
30
0
11
-41.168731697778597
21
-27.331268302221368
31
0
0
LINE
5
126
100
AcDbEntity
8
0
100
AcDbLine
10
-41.168731697778597
20
-27.331268302221368
30
0
11
-41.168731697778554
21
-29.931268302221376
31
0
0
LINE
5
127
100
AcDbEntity
8
0
100
AcDbLine
10
-41.168731697778554
20
-29.931268302221376
30
0
11
-45.168731697778583
21
-29.931268302221376
31
0
0
LINE
5
128
100
AcDbEntity
8
0
100
AcDbLine
10
-45.168731697778583
20
-29.931268302221376
30
0
11
-45.168731697778583
21
-32.1312683022214
31
0
0
LINE
5
129
100
AcDbEntity
8
0
100
AcDbLine
10
-45.168731697778583
20
-32.1312683022214
30
0
11
-38.968731697778608
21
-32.1312683022214
31
0
0
LINE
5
130
100
AcDbEntity
8
0
100
AcDbLine
10
-38.968731697778587
20
-25.131268302221383
30
0
11
-45.168731697778583
21
-25.131268302221386
31
0
0
LINE
5
131
100
AcDbEntity
8
0
100
AcDbLine
10
-45.168731697778583
20
-25.131268302221386
30
0
11
-45.168731697778597
21
-27.331268302221368
31
0
0
LINE
5
132
100
AcDbEntity
8
0
100
AcDbLine
10
-45.168731697778561
20
-34.931268302221376
30
0
11
-41.168731697778554
21
-34.93126830222139
31
0
0
LINE
5
133
100
AcDbEntity
8
0
100
AcDbLine
10
-41.168731697778554
20
-34.93126830222139
30
0
11
-41.168731697778576
21
-37.531268302221385
31
0
0
LINE
5
134
100
AcDbEntity
8
0
100
AcDbLine
10
-41.168731697778576
20
-37.531268302221385
30
0
11
-45.168731697778583
21
-37.531268302221378
31
0
0
LINE
5
135
100
AcDbEntity
8
0
100
AcDbLine
10
-45.168731697778583
20
-37.531268302221378
30
0
11
-45.168731697778561
21
-39.731268302221416
31
0
0
LINE
5
136
100
AcDbEntity
8
0
100
AcDbLine
10
-45.168731697778561
20
-39.731268302221416
30
0
11
-38.968731697778587
21
-39.731268302221409
31
0
0
LINE
5
137
100
AcDbEntity
8
0
100
AcDbLine
10
-38.968731697778587
20
-32.731268302221402
30
0
11
-45.168731697778583
21
-32.731268302221395
31
0
0
LINE
5
138
100
AcDbEntity
8
0
100
AcDbLine
10
-45.168731697778583
20
-32.731268302221395
30
0
11
-45.168731697778561
21
-34.931268302221376
31
0
0
LINE
5
139
100
AcDbEntity
8
0
100
AcDbLine
10
-45.168731697778561
20
-42.531268302221378
30
0
11
-41.16873169777854
21
-42.531268302221392
31
0
0
LINE
5
140
100
AcDbEntity
8
0
100
AcDbLine
10
-41.16873169777854
20
-42.531268302221392
30
0
11
-41.168731697778554
21
-45.131268302221386
31
0
0
LINE
5
141
100
AcDbEntity
8
0
100
AcDbLine
10
-41.168731697778554
20
-45.131268302221386
30
0
11
-45.168731697778597
21
-45.1312683022214
31
0
0
LINE
5
142
100
AcDbEntity
8
0
100
AcDbLine
10
-45.168731697778597
20
-45.1312683022214
30
0
11
-45.168731697778583
21
-47.331268302221417
31
0
0
LINE
5
143
100
AcDbEntity
8
0
100
AcDbLine
10
-45.168731697778583
20
-47.331268302221417
30
0
11
-38.968731697778587
21
-47.33126830222141
31
0
0
LINE
5
144
100
AcDbEntity
8
0
100
AcDbLine
10
-38.968731697778587
20
-40.331268302221389
30
0
11
-45.168731697778561
21
-40.331268302221403
31
0
0
LINE
5
145
100
AcDbEntity
8
0
100
AcDbLine
10
-45.168731697778561
20
-40.331268302221403
30
0
11
-45.168731697778561
21
-42.531268302221378
31
0
0
LINE
5
146
100
AcDbEntity
8
0
100
AcDbLine
10
-45.168731697778597
20
-50.1312683022214
30
0
11
-41.168731697778597
21
-50.131268302221386
31
0
0
LINE
5
147
100
AcDbEntity
8
0
100
AcDbLine
10
-41.168731697778597
20
-50.131268302221386
30
0
11
-41.168731697778576
21
-52.731268302221366
31
0
0
LINE
5
148
100
AcDbEntity
8
0
100
AcDbLine
10
-41.168731697778576
20
-52.731268302221366
30
0
11
-45.168731697778583
21
-52.73126830222138
31
0
0
LINE
5
149
100
AcDbEntity
8
0
100
AcDbLine
10
-45.168731697778583
20
-52.73126830222138
30
0
11
-45.168731697778597
21
-54.931268302221426
31
0
0
LINE
5
150
100
AcDbEntity
8
0
100
AcDbLine
10
-45.168731697778597
20
-54.931268302221426
30
0
11
-38.968731697778608
21
-54.931268302221412
31
0
0
LINE
5
151
100
AcDbEntity
8
0
100
AcDbLine
10
-38.968731697778594
20
-47.931268302221412
30
0
11
-45.16873169777859
21
-47.931268302221412
31
0
0
LINE
5
152
100
AcDbEntity
8
0
100
AcDbLine
10
-45.16873169777859
20
-47.931268302221412
30
0
11
-45.168731697778597
21
-50.1312683022214
31
0
0
LINE
5
153
100
AcDbEntity
8
0
100
AcDbLine
10
-45.168731697778597
20
-57.731268302221409
30
0
11
-41.168731697778597
21
-57.731268302221402
31
0
0
LINE
5
154
100
AcDbEntity
8
0
100
AcDbLine
10
-41.168731697778597
20
-57.731268302221402
30
0
11
-41.168731697778576
21
-60.331268302221403
31
0
0
LINE
5
155
100
AcDbEntity
8
0
100
AcDbLine
10
-41.168731697778576
20
-60.331268302221403
30
0
11
-45.168731697778583
21
-60.33126830222141
31
0
0
LINE
5
156
100
AcDbEntity
8
0
100
AcDbLine
10
-45.168731697778583
20
-60.33126830222141
30
0
11
-45.168731697778597
21
-62.531268302221427
31
0
0
LINE
5
157
100
AcDbEntity
8
0
100
AcDbLine
10
-45.168731697778597
20
-62.531268302221427
30
0
11
-38.968731697778608
21
-62.531268302221427
31
0
0
LINE
5
158
100
AcDbEntity
8
0
100
AcDbLine
10
-38.968731697778587
20
-55.531268302221406
30
0
11
-45.168731697778583
21
-55.53126830222142
31
0
0
LINE
5
159
100
AcDbEntity
8
0
100
AcDbLine
10
-45.168731697778583
20
-55.53126830222142
30
0
11
-45.168731697778597
21
-57.731268302221409
31
0
0
LINE
5
160
100
AcDbEntity
8
0
100
AcDbLine
10
-38.968731697778587
20
-63.131268302221422
30
0
11
-45.168731697778597
21
-63.131268302221429
31
0
0
LINE
5
161
100
AcDbEntity
8
0
100
AcDbLine
10
-45.168731697778597
20
-63.131268302221429
30
0
11
-45.168731697778597
21
-67.053391722366115
31
0
0
SPLINE
5
162
100
AcDbEntity
8
0
100
AcDbSpline
70
4
71
5
72
12
73
6
74
0
42
0.000000001
43
0.0000000001
44
0.0000000001
40
-0.18439125651603661
40
-0.18439125651603661
40
-0.18439125651603661
40
-0.18439125651603661
40
-0.18439125651603661
40
-0.18439125651603661
40
-0.10578860257837355
40
-0.10578860257837355
40
-0.10578860257837355
40
-0.10578860257837355
40
-0.10578860257837355
40
-0.10578860257837355
41
1
41
1
41
1
41
1
41
1
41
1
10
41.157615455479188
20
-13.131268302221368
30
0
10
41.102952697502531
20
-12.835671416768477
30
0
10
41.056981569058593
20
-12.545208574708715
30
0
10
41.019414716595541
20
-12.259710039676914
30
0
10
40.990045528610999
20
-11.979053768687393
30
0
10
40.968731748643719
20
-11.703155732520738
30
0
0
LINE
5
163
100
AcDbEntity
8
0
100
AcDbLine
10
40.968731748643719
20
-11.703155732520738
30
0
11
40.968731697778622
21
-9.9312683022213637
31
0
0
LINE
5
164
100
AcDbEntity
8
0
100
AcDbLine
10
-38.968731697778587
20
-16.93126830222138
30
0
11
35.631268302221329
21
-16.931268302221376
31
0
0
LINE
5
165
100
AcDbEntity
8
0
100
AcDbLine
10
35.631268302221329
20
-16.931268302221376
30
0
11
35.631268302221315
21
-17.53126830222137
31
0
0
LINE
5
166
100
AcDbEntity
8
0
100
AcDbLine
10
35.631268302221315
20
-17.53126830222137
30
0
11
-38.968731697778608
21
-17.531268302221381
31
0
0
LINE
5
167
100
AcDbEntity
8
0
100
AcDbLine
10
-38.968731697778587
20
-24.531268302221378
30
0
11
35.631268302221329
21
-24.531268302221374
31
0
0
LINE
5
168
100
AcDbEntity
8
0
100
AcDbLine
10
35.631268302221329
20
-24.531268302221374
30
0
11
35.631268302221315
21
-25.131268302221379
31
0
0
LINE
5
169
100
AcDbEntity
8
0
100
AcDbLine
10
35.631268302221315
20
-25.131268302221379
30
0
11
-38.968731697778608
21
-25.131268302221386
31
0
0
LINE
5
170
100
AcDbEntity
8
0
100
AcDbLine
10
-38.968731697778587
20
-32.1312683022214
30
0
11
35.631268302221329
21
-32.131268302221379
31
0
0
LINE
5
171
100
AcDbEntity
8
0
100
AcDbLine
10
35.631268302221329
20
-32.131268302221379
30
0
11
35.631268302221315
21
-32.731268302221388
31
0
0
LINE
5
172
100
AcDbEntity
8
0
100
AcDbLine
10
35.631268302221315
20
-32.731268302221388
30
0
11
-38.968731697778608
21
-32.731268302221395
31
0
0
LINE
5
173
100
AcDbEntity
8
0
100
AcDbLine
10
-38.968731697778587
20
-39.731268302221402
30
0
11
35.631268302221322
21
-39.731268302221409
31
0
0
LINE
5
174
100
AcDbEntity
8
0
100
AcDbLine
10
35.631268302221322
20
-39.731268302221409
30
0
11
35.631268302221322
21
-40.331268302221389
31
0
0
LINE
5
175
100
AcDbEntity
8
0
100
AcDbLine
10
35.631268302221322
20
-40.331268302221389
30
0
11
-38.968731697778608
21
-40.331268302221403
31
0
0
LINE
5
176
100
AcDbEntity
8
0
100
AcDbLine
10
-38.968731697778587
20
-47.331268302221403
30
0
11
35.631268302221322
21
-47.331268302221396
31
0
0
LINE
5
177
100
AcDbEntity
8
0
100
AcDbLine
10
35.631268302221322
20
-47.331268302221396
30
0
11
35.631268302221315
21
-47.931268302221412
31
0
0
LINE
5
178
100
AcDbEntity
8
0
100
AcDbLine
10
35.631268302221315
20
-47.931268302221412
30
0
11
-38.968731697778608
21
-47.931268302221412
31
0
0
LINE
5
179
100
AcDbEntity
8
0
100
AcDbLine
10
-38.968731697778615
20
-54.931268302221412
30
0
11
35.631268302221329
21
-54.931268302221397
31
0
0
LINE
5
180
100
AcDbEntity
8
0
100
AcDbLine
10
35.631268302221329
20
-54.931268302221397
30
0
11
35.631268302221315
21
-55.531268302221399
31
0
0
LINE
5
181
100
AcDbEntity
8
0
100
AcDbLine
10
35.631268302221315
20
-55.531268302221399
30
0
11
-38.968731697778608
21
-55.531268302221406
31
0
0
LINE
5
182
100
AcDbEntity
8
0
100
AcDbLine
10
-38.968731697778587
20
-62.53126830222142
30
0
11
35.631268302221329
21
-62.531268302221406
31
0
0
LINE
5
183
100
AcDbEntity
8
0
100
AcDbLine
10
35.631268302221329
20
-62.531268302221406
30
0
11
35.631268302221315
21
-63.131268302221415
31
0
0
LINE
5
184
100
AcDbEntity
8
0
100
AcDbLine
10
35.631268302221315
20
-63.131268302221415
30
0
11
-38.968731697778608
21
-63.131268302221415
31
0
0
LINE
5
185
100
AcDbEntity
8
0
100
AcDbLine
10
40.968731697778615
20
-67.053391722366101
30
0
11
40.968731748643748
21
-65.701842344863039
31
0
0
SPLINE
5
186
100
AcDbEntity
8
0
100
AcDbSpline
70
4
71
5
72
13
73
7
74
0
42
0.000000001
43
0.0000000001
44
0.0000000001
40
0.10578860257837444
40
0.10578860257837444
40
0.10578860257837444
40
0.10578860257837444
40
0.10578860257837444
40
0.10578860257837444
40
0.20000000000000001
40
0.28845713831958031
40
0.28845713831958031
40
0.28845713831958031
40
0.28845713831958031
40
0.28845713831958031
40
0.28845713831958031
41
1
41
1
41
1
41
1
41
1
41
1
41
1
10
40.968731748643741
20
-65.701842344863039
30
0
10
40.994277972523712
20
-65.371157078768135
30
0
10
41.06624790612139
20
-64.716730449172644
30
0
10
41.182643839637905
20
-64.036061903661704
30
0
10
41.346219357476528
20
-63.32752493229728
30
0
10
41.562178040798905
20
-62.58804584085658
30
0
10
41.679773985392345
20
-62.222263874858577
30
0
0
SPLINE
5
187
100
AcDbEntity
8
0
100
AcDbSpline
70
0
71
3
72
8
73
4
74
0
42
0.000000001
43
0.0000000001
44
0.0000000001
40
-2.8758911207064712
40
-2.8758911207064712
40
-2.8758911207064712
40
-2.8758911207064712
40
-2.7168926467569796
40
-2.7168926467569796
40
-2.7168926467569796
40
-2.7168926467569796
10
41.679773985392373
20
-62.222263874858577
30
0
10
41.96176644209325
20
-61.258598683979521
30
0
10
42.326307648131603
20
-60.294933493100459
30
0
10
42.768807115978845
20
-59.331268302221403
30
0
0
LINE
5
188
100
AcDbEntity
8
0
100
AcDbLine
10
42.768807115978845
20
-59.331268302221396
30
0
11
-28.368731697778635
21
-59.331268302221424
31
0
0
LINE
5
189
100
AcDbEntity
8
0
100
AcDbLine
10
-28.368731697778635
20
-59.331268302221424
30
0
11
-28.368731697778635
21
-58.731268302221423
31
0
0
LINE
5
190
100
AcDbEntity
8
0
100
AcDbLine
10
-28.368731697778635
20
-58.731268302221423
30
0
11
43.054318515819858
21
-58.731268302221402
31
0
0
SPLINE
5
191
100
AcDbEntity
8
0
100
AcDbSpline
70
0
71
3
72
8
73
4
74
0
42
0.000000001
43
0.0000000001
44
0.0000000001
40
-2.6838939506425228
40
-2.6838939506425228
40
-2.6838939506425228
40
-2.6838939506425228
40
-2.2989091626405207
40
-2.2989091626405207
40
-2.2989091626405207
40
-2.2989091626405207
10
43.054318515819858
20
-58.731268302221402
30
0
10
44.203332301869111
20
-56.397934968888059
30
0
10
45.806403231671467
20
-54.064601635554723
30
0
10
47.747316482054018
20
-51.73126830222138
30
0
0
LINE
5
192
100
AcDbEntity
8
0
100
AcDbLine
10
47.747316482054018
20
-51.731268302221373
30
0
11
-28.368731697778628
21
-51.731268302221388
31
0
0
LINE
5
193
100
AcDbEntity
8
0
100
AcDbLine
10
-28.368731697778628
20
-51.731268302221388
30
0
11
-28.368731697778635
21
-51.131268302221422
31
0
0
LINE
5
194
100
AcDbEntity
8
0
100
AcDbLine
10
-28.368731697778635
20
-51.131268302221422
30
0
11
48.253658653048291
21
-51.1312683022214
31
0
0
SPLINE
5
195
100
AcDbEntity
8
0
100
AcDbSpline
70
0
71
3
72
8
73
4
74
0
42
0.000000001
43
0.0000000001
44
0.0000000001
40
-2.2659104665260639
40
-2.2659104665260639
40
-2.2659104665260639
40
-2.2659104665260639
40
-1.8809256785240631
40
-1.8809256785240631
40
-1.8809256785240631
40
-1.8809256785240631
10
48.253658653048305
20
-51.131268302221393
30
0
10
50.250604916750596
20
-48.797934968888057
30
0
10
52.571301939181851
20
-46.464601635554743
30
0
10
55.047510505790868
20
-44.1312683022214
30
0
0
LINE
5
196
100
AcDbEntity
8
0
100
AcDbLine
10
55.047510505790868
20
-44.131268302221393
30
0
11
-28.368731697778635
21
-44.131268302221407
31
0
0
LINE
5
197
100
AcDbEntity
8
0
100
AcDbLine
10
-28.368731697778635
20
-44.131268302221407
30
0
11
-28.368731697778635
21
-43.531268302221406
31
0
0
LINE
5
198
100
AcDbEntity
8
0
100
AcDbLine
10
-28.368731697778635
20
-43.531268302221406
30
0
11
55.687500783271361
21
-43.531268302221392
31
0
0
SPLINE
5
199
100
AcDbEntity
8
0
100
AcDbSpline
70
0
71
3
72
8
73
4
74
0
42
0.000000001
43
0.0000000001
44
0.0000000001
40
-1.8479269824096056
40
-1.8479269824096056
40
-1.8479269824096056
40
-1.8479269824096056
40
-1.5744684561240998
40
-1.5744684561240998
40
-1.5744684561240998
40
-1.5744684561240998
10
55.687500783271361
20
-43.531268302221385
30
0
10
57.464015729948215
20
-41.873878414226994
30
0
10
59.309886467813477
20
-40.216488526232595
30
0
10
61.156861814495102
20
-38.559098638238211
30
0
0
SPLINE
5
200
100
AcDbEntity
8
0
100
AcDbSpline
70
4
71
5
72
12
73
6
74
0
42
0.000000001
43
0.0000000001
44
0.0000000001
40
-0.9972307471471612
40
-0.9972307471471612
40
-0.9972307471471612
40
-0.9972307471471612
40
-0.9972307471471612
40
-0.9972307471471612
40
-0.95694323826087579
40
-0.95694323826087579
40
-0.95694323826087579
40
-0.95694323826087579
40
-0.95694323826087579
40
-0.95694323826087579
41
1
41
1
41
1
41
1
41
1
41
1
10
61.156861814495102
20
-38.559098638238211
30
0
10
60.68024468259388
20
-38.142608806949752
30
0
10
60.212891595812223
20
-37.731591138212799
30
0
10
59.754797379766117
20
-37.326042575579535
30
0
10
59.305931575225145
20
-36.925945127140245
30
0
10
58.866242563294584
20
-36.531268302221378
30
0
0
LINE
5
201
100
AcDbEntity
8
0
100
AcDbLine
10
58.866242563294584
20
-36.531268302221378
30
0
11
-28.368731697778635
21
-36.531268302221392
31
0
0
LINE
5
202
100
AcDbEntity
8
0
100
AcDbLine
10
-28.368731697778635
20
-36.531268302221392
30
0
11
-28.368731697778635
21
-35.931268302221405
31
0
0
LINE
5
203
100
AcDbEntity
8
0
100
AcDbLine
10
-28.368731697778635
20
-35.931268302221405
30
0
11
58.200758484331118
21
-35.93126830222139
31
0
0
SPLINE
5
204
100
AcDbEntity
8
0
100
AcDbSpline
70
4
71
5
72
13
73
7
74
0
42
0.000000001
43
0.0000000001
44
0.0000000001
40
-0.94459011890814615
40
-0.94459011890814615
40
-0.94459011890814615
40
-0.94459011890814615
40
-0.94459011890814615
40
-0.94459011890814615
40
-0.80000000000000004
40
-0.78174984311827944
40
-0.78174984311827944
40
-0.78174984311827944
40
-0.78174984311827944
40
-0.78174984311827944
40
-0.78174984311827944
41
1
41
1
41
1
41
1
41
1
41
1
41
1
10
58.200758484331132
20
-35.93126830222139
30
0
10
56.663015380815942
20
-34.538584226842438
30
0
10
55.063526985201193
20
-33.04829238132082
30
0
10
53.609327438483092
20
-31.643820950944459
30
0
10
52.29146181762539
20
-30.319880367942645
30
0
10
51.099616702461148
20
-29.070378616259394
30
0
10
50.967610076637833
20
-28.931268302221376
30
0
0
LINE
5
205
100
AcDbEntity
8
0
100
AcDbLine
10
50.967610076637826
20
-28.931268302221376
30
0
11
-28.368731697778635
21
-28.931268302221387
31
0
0
LINE
5
206
100
AcDbEntity
8
0
100
AcDbLine
10
-28.368731697778635
20
-28.931268302221387
30
0
11
-28.368731697778635
21
-28.331268302221389
31
0
0
LINE
5
207
100
AcDbEntity
8
0
100
AcDbLine
10
-28.368731697778635
20
-28.331268302221389
30
0
11
50.403454668142501
21
-28.331268302221389
31
0
0
SPLINE
5
208
100
AcDbEntity
8
0
100
AcDbSpline
70
4
71
5
72
13
73
7
74
0
42
0.000000001
43
0.0000000001
44
0.0000000001
40
-0.76582322667500602
40
-0.76582322667500602
40
-0.76582322667500602
40
-0.76582322667500602
40
-0.76582322667500602
40
-0.76582322667500602
40
-0.60000000000000009
40
-0.54721852224175249
40
-0.54721852224175249
40
-0.54721852224175249
40
-0.54721852224175249
40
-0.54721852224175249
40
-0.54721852224175249
41
1
41
1
41
1
41
1
41
1
41
1
41
1
10
50.403454668142501
20
-28.331268302221389
30
0
10
49.253150267917825
20
-27.096311681377465
30
0
10
47.903150196844493
20
-25.566586378736183
30
0
10
46.753043997773958
20
-24.15493603649643
30
0
10
45.774775427246404
20
-22.84478816145289
30
0
10
44.943892528218363
20
-21.621699270017345
30
0
10
44.751540348694704
20
-21.331268302221389
30
0
0
LINE
5
209
100
AcDbEntity
8
0
100
AcDbLine
10
44.751540348694704
20
-21.331268302221389
30
0
11
-28.368731697778628
21
-21.331268302221389
31
0
0
LINE
5
210
100
AcDbEntity
8
0
100
AcDbLine
10
-28.368731697778628
20
-21.331268302221389
30
0
11
-28.368731697778635
21
-20.731268302221384
31
0
0
LINE
5
211
100
AcDbEntity
8
0
100
AcDbLine
10
-28.368731697778635
20
-20.731268302221384
30
0
11
44.362844138408725
21
-20.731268302221373
31
0
0
SPLINE
5
212
100
AcDbEntity
8
0
100
AcDbSpline
70
4
71
5
72
13
73
7
74
0
42
0.000000001
43
0.0000000001
44
0.0000000001
40
-0.52510409210843934
40
-0.52510409210843934
40
-0.52510409210843934
40
-0.52510409210843934
40
-0.52510409210843934
40
-0.52510409210843934
40
-0.40000000000000002
40
-0.2158569818609086
40
-0.2158569818609086
40
-0.2158569818609086
40
-0.2158569818609086
40
-0.2158569818609086
40
-0.2158569818609086
41
1
41
1
41
1
41
1
41
1
41
1
41
1
10
44.362844138408732
20
-20.731268302221373
30
0
10
43.938931726893827
20
-20.061786471957845
30
0
10
43.000137804994964
20
-18.471316034022074
30
0
10
42.305133022133745
20
-17.024848974727547
30
0
10
41.797153871928927
20
-15.688855758120459
30
0
10
41.442510302449108
20
-14.443436066557656
30
0
10
41.281150036431633
20
-13.731268302221364
30
0
0
LINE
5
213
100
AcDbEntity
8
0
100
AcDbLine
10
41.28115003643164
20
-13.731268302221364
30
0
11
-28.368731697778628
21
-13.731268302221373
31
0
0
LINE
5
214
100
AcDbEntity
8
0
100
AcDbLine
10
-28.368731697778628
20
-13.731268302221373
30
0
11
-28.368731697778635
21
-13.131268302221377
31
0
0
LINE
5
215
100
AcDbEntity
8
0
100
AcDbLine
10
-28.368731697778635
20
-13.131268302221377
30
0
11
41.157615455479188
21
-13.131268302221368
31
0
0
LINE
5
216
100
AcDbEntity
8
0
100
AcDbLine
10
40.968731697778594
20
-86.915928326808825
30
0
11
40.968731697778608
21
-81.684660024587458
31
0
0
LINE
5
217
100
AcDbEntity
8
0
100
AcDbLine
10
40.968731697778608
20
-81.684660024587458
30
0
11
45.168731697778611
21
-81.684660024587458
31
0
0
LINE
5
218
100
AcDbEntity
8
0
100
AcDbLine
10
45.168731697778611
20
-81.684660024587458
30
0
11
45.168731697778597
21
-72.284660024587467
31
0
0
LINE
5
219
100
AcDbEntity
8
0
100
AcDbLine
10
45.168731697778597
20
-72.284660024587467
30
0
11
40.968731697778594
21
-72.284660024587453
31
0
0
LINE
5
220
100
AcDbEntity
8
0
100
AcDbLine
10
40.968731697778594
20
-72.284660024587453
30
0
11
40.968731697778615
21
-67.053391722366086
31
0
0
LINE
5
221
100
AcDbEntity
8
0
100
AcDbLine
10
-45.168731697778597
20
-67.053391722366115
30
0
11
-45.168731697778583
21
-71.985421688587962
31
0
0
LINE
5
222
100
AcDbEntity
8
0
100
AcDbLine
10
-45.168731697778583
20
-71.985421688587962
30
0
11
-41.168731697778597
21
-71.985421688587962
31
0
0
LINE
5
223
100
AcDbEntity
8
0
100
AcDbLine
10
-41.168731697778597
20
-71.985421688587962
30
0
11
-41.168731697778576
21
-80.585421688587957
31
0
0
LINE
5
224
100
AcDbEntity
8
0
100
AcDbLine
10
-41.168731697778576
20
-80.585421688587957
30
0
11
-45.168731697778583
21
-80.585421688587985
31
0
0
LINE
5
225
100
AcDbEntity
8
0
100
AcDbLine
10
-45.168731697778583
20
-80.585421688587985
30
0
11
-45.168731697778611
21
-86.915928326808825
31
0
0
LINE
5
226
100
AcDbEntity
8
0
100
AcDbLine
10
-45.168731697778611
20
-86.915928326808825
30
0
11
40.968731697778594
21
-86.915928326808825
31
0
0
ENDSEC
0
SECTION
2
OBJECTS
0
DICTIONARY
5
C
100
AcDbDictionary
3
ACAD_GROUP
350
D
3
ACAD_MLINESTYLE
350
17
0
DICTIONARY
5
D
100
AcDbDictionary
0
DICTIONARY
5
1A
330
C
100
AcDbDictionary
0
DICTIONARY
5
17
100
AcDbDictionary
0
ENDSEC
0
EOF
