  0
SECTION
  2
HEADER
  9
$ACADVER
  1
AC1014
  9
$HANDSEED
  5
FFFF
  9
$MEASUREMENT
 70
     1
  0
ENDSEC
  0
SECTION
  2
TABLES
  0
TABLE
  2
VPORT
  5
8
330
0
100
AcDbSymbolTable
 70
     4
  0
VPORT
  5
2E
330
8
100
AcDbSymbolTableRecord
100
AcDbViewportTableRecord
  2
*ACTIVE
 70
     0
 10
0.0
 20
0.0
 11
1.0
 21
1.0
 12
210.0
 22
148.5
 13
0.0
 23
0.0
 14
10.0
 24
10.0
 15
10.0
 25
10.0
 16
0.0
 26
0.0
 36
1.0
 17
0.0
 27
0.0
 37
0.0
 40
341.0
 41
1.24
 42
50.0
 43
0.0
 44
0.0
 50
0.0
 51
0.0
 71
     0
 72
   100
 73
     1
 74
     3
 75
     0
 76
     0
 77
     0
 78
     0
  0
ENDTAB
  0
TABLE
  2
LTYPE
  5
5
330
0
100
AcDbSymbolTable
 70
     1
  0
LTYPE
  5
14
330
5
100
AcDbSymbolTableRecord
100
AcDbLinetypeTableRecord
  2
BYBLOCK
 70
     0
  3

 72
    65
 73
     0
 40
0.0
  0
LTYPE
  5
15
330
5
100
AcDbSymbolTableRecord
100
AcDbLinetypeTableRecord
  2
BYLAYER
 70
     0
  3

 72
    65
 73
     0
 40
0.0
  0
LTYPE
  5
16
330
5
100
AcDbSymbolTableRecord
100
AcDbLinetypeTableRecord
  2
CONTINUOUS
 70
     0
  3
Solid line
 72
    65
 73
     0
 40
0.0
  0
ENDTAB
  0
TABLE
  2
LAYER
  5
2
100
AcDbSymbolTable
 70
2
  0
LAYER
  5
50
100
AcDbSymbolTableRecord
100
AcDbLayerTableRecord
  2
0
 70
0
  6
CONTINUOUS
  0
LAYER
  5
51
100
AcDbSymbolTableRecord
100
AcDbLayerTableRecord
  2
Layer_1
 70
0
  6
CONTINUOUS
  0
ENDTAB
  0
TABLE
  2
STYLE
  5
3
330
0
100
AcDbSymbolTable
 70
     1
  0
STYLE
  5
11
330
3
100
AcDbSymbolTableRecord
100
AcDbTextStyleTableRecord
  2
STANDARD
 70
     0
 40
0.0
 41
1.0
 50
0.0
 71
     0
 42
2.5
  3
txt
  4

  0
ENDTAB
  0
TABLE
  2
VIEW
  5
6
330
0
100
AcDbSymbolTable
 70
     0
  0
ENDTAB
  0
TABLE
  2
UCS
  5
7
330
0
100
AcDbSymbolTable
 70
     0
  0
ENDTAB
  0
TABLE
  2
APPID
  5
9
330
0
100
AcDbSymbolTable
 70
     2
  0
APPID
  5
12
330
9
100
AcDbSymbolTableRecord
100
AcDbRegAppTableRecord
  2
ACAD
 70
     0
  0
ENDTAB
  0
TABLE
  2
DIMSTYLE
  5
A
330
0
100
AcDbSymbolTable
 70
     1
  0
DIMSTYLE
105
27
330
A
100
AcDbSymbolTableRecord
100
AcDbDimStyleTableRecord
  2
ISO-25
 70
     0
  3

  4

  5

  6

  7

 40
1.0
 41
2.5
 42
0.625
 43
3.75
 44
1.25
 45
0.0
 46
0.0
 47
0.0
 48
0.0
140
2.5
141
2.5
142
0.0
143
0.03937007874016
144
1.0
145
0.0
146
1.0
147
0.625
 71
     0
 72
     0
 73
     0
 74
     0
 75
     0
 76
     0
 77
     1
 78
     8
170
     0
171
     3
172
     1
173
     0
174
     0
175
     0
176
     0
177
     0
178
     0
270
     2
271
     2
272
     2
273
     2
274
     3
340
11
275
     0
280
     0
281
     0
282
     0
283
     0
284
     8
285
     0
286
     0
287
     3
288
     0
  0
ENDTAB
  0
TABLE
  2
BLOCK_RECORD
  5
1
330
0
100
AcDbSymbolTable
 70
     1
  0
BLOCK_RECORD
  5
1F
330
1
100
AcDbSymbolTableRecord
100
AcDbBlockTableRecord
  2
*MODEL_SPACE
  0
BLOCK_RECORD
  5
1B
330
1
100
AcDbSymbolTableRecord
100
AcDbBlockTableRecord
  2
*PAPER_SPACE
  0
ENDTAB
  0
ENDSEC
  0
SECTION
  2
BLOCKS
  0
BLOCK
  5
20
330
1F
100
AcDbEntity
  8
0
100
AcDbBlockBegin
  2
*MODEL_SPACE
 70
     0
 10
0.0
 20
0.0
 30
0.0
  3
*MODEL_SPACE
  1

  0
ENDBLK
  5
21
330
1F
100
AcDbEntity
  8
0
100
AcDbBlockEnd
  0
BLOCK
  5
1C
330
1B
100
AcDbEntity
 67
     1
  8
0
100
AcDbBlockBegin
  2
*PAPER_SPACE
  1

  0
ENDBLK
  5
1D
330
1B
100
AcDbEntity
 67
     1
  8
0
100
AcDbBlockEnd
  0
ENDSEC
  0
SECTION
  2
ENTITIES
  0
SPLINE
  5
100
100
AcDbEntity
  8
Layer_1
 62
7
100
AcDbSpline
 70
8
 71
3
 72
8
 73
4
 74
0
 40
0
 40
0
 40
0
 40
0
 40
1
 40
1
 40
1
 40
1
 10
220.346345
 20
484.646825
 30
0.0
 10
209.780544
 20
503.721666
 30
0.0
 10
197.897675
 20
517.151820
 30
0.0
 10
186.513953
 20
522.884580
 30
0.0
  0
SPLINE
  5
101
100
AcDbEntity
  8
Layer_1
 62
7
100
AcDbSpline
 70
8
 71
3
 72
8
 73
4
 74
0
 40
0
 40
0
 40
0
 40
0
 40
1
 40
1
 40
1
 40
1
 10
186.513953
 20
522.884580
 30
0.0
 10
178.846733
 20
526.745707
 30
0.0
 10
158.324485
 20
533.379940
 30
0.0
 10
145.567463
 20
536.121326
 30
0.0
  0
SPLINE
  5
102
100
AcDbEntity
  8
Layer_1
 62
7
100
AcDbSpline
 70
8
 71
3
 72
8
 73
4
 74
0
 40
0
 40
0
 40
0
 40
0
 40
1
 40
1
 40
1
 40
1
 10
145.567463
 20
536.121326
 30
0.0
 10
135.745135
 20
538.232088
 30
0.0
 10
116.684923
 20
538.525106
 30
0.0
 10
109.142855
 20
536.681282
 30
0.0
  0
SPLINE
  5
103
100
AcDbEntity
  8
Layer_1
 62
7
100
AcDbSpline
 70
8
 71
3
 72
8
 73
4
 74
0
 40
0
 40
0
 40
0
 40
0
 40
1
 40
1
 40
1
 40
1
 10
109.142855
 20
536.681282
 30
0.0
 10
96.298818
 20
533.541288
 30
0.0
 10
83.916371
 20
525.160233
 30
0.0
 10
78.522143
 20
515.955685
 30
0.0
  0
SPLINE
  5
104
100
AcDbEntity
  8
Layer_1
 62
7
100
AcDbSpline
 70
8
 71
3
 72
8
 73
4
 74
0
 40
0
 40
0
 40
0
 40
0
 40
1
 40
1
 40
1
 40
1
 10
78.522143
 20
515.955685
 30
0.0
 10
73.598717
 20
507.554476
 30
0.0
 10
72.576201
 20
512.062299
 30
0.0
 10
76.751450
 20
523.761846
 30
0.0
  0
SPLINE
  5
105
100
AcDbEntity
  8
Layer_1
 62
7
100
AcDbSpline
 70
8
 71
3
 72
8
 73
4
 74
0
 40
0
 40
0
 40
0
 40
0
 40
1
 40
1
 40
1
 40
1
 10
76.751450
 20
523.761846
 30
0.0
 10
81.530181
 20
537.152428
 30
0.0
 10
86.007433
 20
544.527298
 30
0.0
 10
94.595970
 20
553.155222
 30
0.0
  0
SPLINE
  5
106
100
AcDbEntity
  8
Layer_1
 62
7
100
AcDbSpline
 70
8
 71
3
 72
8
 73
4
 74
0
 40
0
 40
0
 40
0
 40
0
 40
1
 40
1
 40
1
 40
1
 10
94.595970
 20
553.155222
 30
0.0
 10
104.466243
 20
563.070725
 30
0.0
 10
110.905523
 20
566.464745
 30
0.0
 10
133.419033
 20
573.618095
 30
0.0
  0
SPLINE
  5
107
100
AcDbEntity
  8
Layer_1
 62
7
100
AcDbSpline
 70
8
 71
3
 72
8
 73
4
 74
0
 40
0
 40
0
 40
0
 40
0
 40
1
 40
1
 40
1
 40
1
 10
133.419033
 20
573.618095
 30
0.0
 10
158.089703
 20
581.456857
 30
0.0
 10
156.962883
 20
580.717137
 30
0.0
 10
178.936174
 20
603.498776
 30
0.0
  0
SPLINE
  5
108
100
AcDbEntity
  8
Layer_1
 62
7
100
AcDbSpline
 70
8
 71
3
 72
8
 73
4
 74
0
 40
0
 40
0
 40
0
 40
0
 40
1
 40
1
 40
1
 40
1
 10
178.936174
 20
603.498776
 30
0.0
 10
200.596924
 20
625.956375
 30
0.0
 10
200.373174
 20
624.401297
 30
0.0
 10
181.032593
 20
618.069217
 30
0.0
  0
SPLINE
  5
109
100
AcDbEntity
  8
Layer_1
 62
7
100
AcDbSpline
 70
8
 71
3
 72
8
 73
4
 74
0
 40
0
 40
0
 40
0
 40
0
 40
1
 40
1
 40
1
 40
1
 10
181.032593
 20
618.069217
 30
0.0
 10
176.296944
 20
616.518765
 30
0.0
 10
171.683773
 20
615.533635
 30
0.0
 10
170.781103
 20
615.880015
 30
0.0
  0
SPLINE
  5
10a
100
AcDbEntity
  8
Layer_1
 62
7
100
AcDbSpline
 70
8
 71
3
 72
8
 73
4
 74
0
 40
0
 40
0
 40
0
 40
0
 40
1
 40
1
 40
1
 40
1
 10
170.781103
 20
615.880015
 30
0.0
 10
169.878433
 20
616.226406
 30
0.0
 10
168.397594
 20
618.066417
 30
0.0
 10
167.490354
 20
619.968926
 30
0.0
  0
SPLINE
  5
10b
100
AcDbEntity
  8
Layer_1
 62
7
100
AcDbSpline
 70
8
 71
3
 72
8
 73
4
 74
0
 40
0
 40
0
 40
0
 40
0
 40
1
 40
1
 40
1
 40
1
 10
167.490354
 20
619.968926
 30
0.0
 10
165.307623
 20
624.546156
 30
0.0
 10
166.779964
 20
628.199167
 30
0.0
 10
173.028385
 20
633.709346
 30
0.0
  0
SPLINE
  5
10c
100
AcDbEntity
  8
Layer_1
 62
7
100
AcDbSpline
 70
8
 71
3
 72
8
 73
4
 74
0
 40
0
 40
0
 40
0
 40
0
 40
1
 40
1
 40
1
 40
1
 10
173.028385
 20
633.709346
 30
0.0
 10
178.263884
 20
638.326256
 30
0.0
 10
197.575004
 20
649.975666
 30
0.0
 10
208.939334
 20
655.372556
 30
0.0
  0
SPLINE
  5
10d
100
AcDbEntity
  8
Layer_1
 62
7
100
AcDbSpline
 70
8
 71
3
 72
8
 73
4
 74
0
 40
0
 40
0
 40
0
 40
0
 40
1
 40
1
 40
1
 40
1
 10
208.939334
 20
655.372556
 30
0.0
 10
221.974764
 20
661.563057
 30
0.0
 10
232.641003
 20
660.065006
 30
0.0
 10
241.438694
 20
650.808096
 30
0.0
  0
SPLINE
  5
10e
100
AcDbEntity
  8
Layer_1
 62
7
100
AcDbSpline
 70
8
 71
3
 72
8
 73
4
 74
0
 40
0
 40
0
 40
0
 40
0
 40
1
 40
1
 40
1
 40
1
 10
241.438694
 20
650.808096
 30
0.0
 10
244.674913
 20
647.402947
 30
0.0
 10
243.789565
 20
647.345597
 30
0.0
 10
262.935873
 20
652.200647
 30
0.0
  0
SPLINE
  5
10f
100
AcDbEntity
  8
Layer_1
 62
7
100
AcDbSpline
 70
8
 71
3
 72
8
 73
4
 74
0
 40
0
 40
0
 40
0
 40
0
 40
1
 40
1
 40
1
 40
1
 10
262.935873
 20
652.200647
 30
0.0
 10
270.247034
 20
654.054585
 30
0.0
 10
277.100963
 20
655.571446
 30
0.0
 10
278.166824
 20
655.571446
 30
0.0
  0
SPLINE
  5
110
100
AcDbEntity
  8
Layer_1
 62
7
100
AcDbSpline
 70
8
 71
3
 72
8
 73
4
 74
0
 40
0
 40
0
 40
0
 40
0
 40
1
 40
1
 40
1
 40
1
 10
278.166824
 20
655.571446
 30
0.0
 10
280.727294
 20
655.571446
 30
0.0
 10
281.524955
 20
658.999797
 30
0.0
 10
280.919375
 20
667.401936
 30
0.0
  0
SPLINE
  5
111
100
AcDbEntity
  8
Layer_1
 62
7
100
AcDbSpline
 70
8
 71
3
 72
8
 73
4
 74
0
 40
0
 40
0
 40
0
 40
0
 40
1
 40
1
 40
1
 40
1
 10
280.919375
 20
667.401936
 30
0.0
 10
280.063933
 20
679.270725
 30
0.0
 10
273.379654
 20
688.464986
 30
0.0
 10
259.496135
 20
696.869705
 30
0.0
  0
SPLINE
  5
112
100
AcDbEntity
  8
Layer_1
 62
7
100
AcDbSpline
 70
8
 71
3
 72
8
 73
4
 74
0
 40
0
 40
0
 40
0
 40
0
 40
1
 40
1
 40
1
 40
1
 10
259.496135
 20
696.869705
 30
0.0
 10
251.412284
 20
701.763466
 30
0.0
 10
250.259525
 20
704.936684
 30
0.0
 10
255.670044
 20
707.401879
 30
0.0
  0
SPLINE
  5
113
100
AcDbEntity
  8
Layer_1
 62
7
100
AcDbSpline
 70
8
 71
3
 72
8
 73
4
 74
0
 40
0
 40
0
 40
0
 40
0
 40
1
 40
1
 40
1
 40
1
 10
255.670044
 20
707.401879
 30
0.0
 10
266.774244
 20
712.461294
 30
0.0
 10
315.030161
 20
711.147308
 30
0.0
 10
344.970312
 20
704.970275
 30
0.0
  0
SPLINE
  5
114
100
AcDbEntity
  8
Layer_1
 62
7
100
AcDbSpline
 70
8
 71
3
 72
8
 73
4
 74
0
 40
0
 40
0
 40
0
 40
0
 40
1
 40
1
 40
1
 40
1
 10
344.970312
 20
704.970275
 30
0.0
 10
370.505764
 20
699.701987
 30
0.0
 10
377.185946
 20
694.107527
 30
0.0
 10
386.641899
 20
670.071447
 30
0.0
  0
SPLINE
  5
115
100
AcDbEntity
  8
Layer_1
 62
7
100
AcDbSpline
 70
8
 71
3
 72
8
 73
4
 74
0
 40
0
 40
0
 40
0
 40
0
 40
1
 40
1
 40
1
 40
1
 10
386.641899
 20
670.071447
 30
0.0
 10
395.505241
 20
647.541785
 30
0.0
 10
395.650687
 20
647.397556
 30
0.0
 10
423.837723
 20
633.188177
 30
0.0
  0
SPLINE
  5
116
100
AcDbEntity
  8
Layer_1
 62
7
100
AcDbSpline
 70
8
 71
3
 72
8
 73
4
 74
0
 40
0
 40
0
 40
0
 40
0
 40
1
 40
1
 40
1
 40
1
 10
423.837723
 20
633.188177
 30
0.0
 10
457.891115
 20
616.021515
 30
0.0
 10
472.324847
 20
605.072356
 30
0.0
 10
479.133638
 20
591.241717
 30
0.0
  0
SPLINE
  5
117
100
AcDbEntity
  8
Layer_1
 62
7
100
AcDbSpline
 70
8
 71
3
 72
8
 73
4
 74
0
 40
0
 40
0
 40
0
 40
0
 40
1
 40
1
 40
1
 40
1
 10
479.133638
 20
591.241717
 30
0.0
 10
482.143776
 20
585.127307
 30
0.0
 10
482.369046
 20
584.007905
 30
0.0
 10
481.933106
 20
577.331816
 30
0.0
  0
SPLINE
  5
118
100
AcDbEntity
  8
Layer_1
 62
7
100
AcDbSpline
 70
8
 71
3
 72
8
 73
4
 74
0
 40
0
 40
0
 40
0
 40
0
 40
1
 40
1
 40
1
 40
1
 10
481.933106
 20
577.331816
 30
0.0
 10
481.337717
 20
568.213546
 30
0.0
 10
478.850655
 20
563.176826
 30
0.0
 10
470.807603
 20
554.800819
 30
0.0
  0
SPLINE
  5
119
100
AcDbEntity
  8
Layer_1
 62
7
100
AcDbSpline
 70
8
 71
3
 72
8
 73
4
 74
0
 40
0
 40
0
 40
0
 40
0
 40
1
 40
1
 40
1
 40
1
 10
470.807603
 20
554.800819
 30
0.0
 10
464.018485
 20
547.730646
 30
0.0
 10
448.916570
 20
536.975235
 30
0.0
 10
447.236362
 20
538.013650
 30
0.0
  0
SPLINE
  5
11a
100
AcDbEntity
  8
Layer_1
 62
7
100
AcDbSpline
 70
8
 71
3
 72
8
 73
4
 74
0
 40
0
 40
0
 40
0
 40
0
 40
1
 40
1
 40
1
 40
1
 10
447.236362
 20
538.013650
 30
0.0
 10
446.592132
 20
538.411805
 30
0.0
 10
446.142841
 20
541.983657
 30
0.0
 10
446.142841
 20
546.707395
 30
0.0
  0
SPLINE
  5
11b
100
AcDbEntity
  8
Layer_1
 62
7
100
AcDbSpline
 70
8
 71
3
 72
8
 73
4
 74
0
 40
0
 40
0
 40
0
 40
0
 40
1
 40
1
 40
1
 40
1
 10
446.142841
 20
546.707395
 30
0.0
 10
446.142841
 20
554.171754
 30
0.0
 10
445.947817
 20
554.920243
 30
0.0
 10
443.318882
 20
557.549263
 30
0.0
  0
SPLINE
  5
11c
100
AcDbEntity
  8
Layer_1
 62
7
100
AcDbSpline
 70
8
 71
3
 72
8
 73
4
 74
0
 40
0
 40
0
 40
0
 40
0
 40
1
 40
1
 40
1
 40
1
 10
443.318882
 20
557.549263
 30
0.0
 10
440.191757
 20
560.676407
 30
0.0
 10
429.670063
 20
564.385056
 30
0.0
 10
415.861257
 20
567.227466
 30
0.0
  0
SPLINE
  5
11d
100
AcDbEntity
  8
Layer_1
 62
7
100
AcDbSpline
 70
8
 71
3
 72
8
 73
4
 74
0
 40
0
 40
0
 40
0
 40
0
 40
1
 40
1
 40
1
 40
1
 10
415.861257
 20
567.227466
 30
0.0
 10
408.232261
 20
568.797817
 30
0.0
 10
405.995443
 20
568.837545
 30
0.0
 10
392.252712
 20
567.646815
 30
0.0
  0
SPLINE
  5
11e
100
AcDbEntity
  8
Layer_1
 62
7
100
AcDbSpline
 70
8
 71
3
 72
8
 73
4
 74
0
 40
0
 40
0
 40
0
 40
0
 40
1
 40
1
 40
1
 40
1
 10
392.252712
 20
567.646815
 30
0.0
 10
374.508595
 20
566.109405
 30
0.0
 10
370.242000
 20
566.810467
 30
0.0
 10
365.108343
 20
572.107045
 30
0.0
  0
SPLINE
  5
11f
100
AcDbEntity
  8
Layer_1
 62
7
100
AcDbSpline
 70
8
 71
3
 72
8
 73
4
 74
0
 40
0
 40
0
 40
0
 40
0
 40
1
 40
1
 40
1
 40
1
 10
365.108343
 20
572.107045
 30
0.0
 10
363.333373
 20
573.938345
 30
0.0
 10
361.088929
 20
577.776827
 30
0.0
 10
360.120643
 20
580.637015
 30
0.0
  0
SPLINE
  5
120
100
AcDbEntity
  8
Layer_1
 62
7
100
AcDbSpline
 70
8
 71
3
 72
8
 73
4
 74
0
 40
0
 40
0
 40
0
 40
0
 40
1
 40
1
 40
1
 40
1
 10
357.667285
 20
582.682677
 30
0.0
 10
356.374942
 20
576.798746
 30
0.0
 10
357.953471
 20
571.889395
 30
0.0
 10
362.346803
 20
568.128866
 30
0.0
  0
SPLINE
  5
121
100
AcDbEntity
  8
Layer_1
 62
7
100
AcDbSpline
 70
8
 71
3
 72
8
 73
4
 74
0
 40
0
 40
0
 40
0
 40
0
 40
1
 40
1
 40
1
 40
1
 10
362.346803
 20
568.128866
 30
0.0
 10
366.479036
 20
564.591815
 30
0.0
 10
373.639805
 20
561.571447
 30
0.0
 10
377.893247
 20
561.571447
 30
0.0
  0
SPLINE
  5
122
100
AcDbEntity
  8
Layer_1
 62
7
100
AcDbSpline
 70
8
 71
3
 72
8
 73
4
 74
0
 40
0
 40
0
 40
0
 40
0
 40
1
 40
1
 40
1
 40
1
 10
377.893247
 20
561.571447
 30
0.0
 10
379.209997
 20
561.571447
 30
0.0
 10
385.317326
 20
562.734757
 30
0.0
 10
391.465106
 20
564.156567
 30
0.0
  0
SPLINE
  5
123
100
AcDbEntity
  8
Layer_1
 62
7
100
AcDbSpline
 70
8
 71
3
 72
8
 73
4
 74
0
 40
0
 40
0
 40
0
 40
0
 40
1
 40
1
 40
1
 40
1
 10
391.465106
 20
564.156567
 30
0.0
 10
404.637704
 20
567.203046
 30
0.0
 10
407.949477
 20
566.985087
 30
0.0
 10
422.250832
 20
562.130467
 30
0.0
  0
SPLINE
  5
124
100
AcDbEntity
  8
Layer_1
 62
7
100
AcDbSpline
 70
8
 71
3
 72
8
 73
4
 74
0
 40
0
 40
0
 40
0
 40
0
 40
1
 40
1
 40
1
 40
1
 10
422.250832
 20
562.130467
 30
0.0
 10
434.095682
 20
558.109729
 30
0.0
 10
438.543014
 20
555.652942
 30
0.0
 10
438.944343
 20
552.908721
 30
0.0
  0
SPLINE
  5
125
100
AcDbEntity
  8
Layer_1
 62
7
100
AcDbSpline
 70
8
 71
3
 72
8
 73
4
 74
0
 40
0
 40
0
 40
0
 40
0
 40
1
 40
1
 40
1
 40
1
 10
438.944343
 20
552.908721
 30
0.0
 10
439.576809
 20
548.583902
 30
0.0
 10
430.346154
 20
541.239024
 30
0.0
 10
426.783883
 20
543.232573
 30
0.0
  0
SPLINE
  5
126
100
AcDbEntity
  8
Layer_1
 62
7
100
AcDbSpline
 70
8
 71
3
 72
8
 73
4
 74
0
 40
0
 40
0
 40
0
 40
0
 40
1
 40
1
 40
1
 40
1
 10
426.783883
 20
543.232573
 30
0.0
 10
425.955543
 20
543.696151
 30
0.0
 10
424.227005
 20
545.649534
 30
0.0
 10
422.942712
 20
547.573436
 30
0.0
  0
SPLINE
  5
127
100
AcDbEntity
  8
Layer_1
 62
7
100
AcDbSpline
 70
8
 71
3
 72
8
 73
4
 74
0
 40
0
 40
0
 40
0
 40
0
 40
1
 40
1
 40
1
 40
1
 10
422.942712
 20
547.573436
 30
0.0
 10
419.756117
 20
552.347008
 30
0.0
 10
410.611833
 20
555.513420
 30
0.0
 10
400.142863
 20
555.468378
 30
0.0
  0
SPLINE
  5
128
100
AcDbEntity
  8
Layer_1
 62
7
100
AcDbSpline
 70
8
 71
3
 72
8
 73
4
 74
0
 40
0
 40
0
 40
0
 40
0
 40
1
 40
1
 40
1
 40
1
 10
400.142863
 20
555.468378
 30
0.0
 10
391.705512
 20
555.432094
 30
0.0
 10
391.826665
 20
555.317575
 30
0.0
 10
405.429137
 20
550.480535
 30
0.0
  0
SPLINE
  5
129
100
AcDbEntity
  8
Layer_1
 62
7
100
AcDbSpline
 70
8
 71
3
 72
8
 73
4
 74
0
 40
0
 40
0
 40
0
 40
0
 40
1
 40
1
 40
1
 40
1
 10
405.429137
 20
550.480535
 30
0.0
 10
415.330498
 20
546.959509
 30
0.0
 10
417.142857
 20
545.600976
 30
0.0
 10
417.142857
 20
541.700022
 30
0.0
  0
SPLINE
  5
12a
100
AcDbEntity
  8
Layer_1
 62
7
100
AcDbSpline
 70
8
 71
3
 72
8
 73
4
 74
0
 40
0
 40
0
 40
0
 40
0
 40
1
 40
1
 40
1
 40
1
 10
417.142857
 20
541.700022
 30
0.0
 10
417.142857
 20
535.874825
 30
0.0
 10
412.678120
 20
535.165370
 30
0.0
 10
400.444469
 20
539.046567
 30
0.0
  0
SPLINE
  5
12b
100
AcDbEntity
  8
Layer_1
 62
7
100
AcDbSpline
 70
8
 71
3
 72
8
 73
4
 74
0
 40
0
 40
0
 40
0
 40
0
 40
1
 40
1
 40
1
 40
1
 10
400.444469
 20
539.046567
 30
0.0
 10
385.581855
 20
543.761858
 30
0.0
 10
349.265537
 20
563.092917
 30
0.0
 10
349.109575
 20
566.371976
 30
0.0
  0
SPLINE
  5
12c
100
AcDbEntity
  8
Layer_1
 62
7
100
AcDbSpline
 70
8
 71
3
 72
8
 73
4
 74
0
 40
0
 40
0
 40
0
 40
0
 40
1
 40
1
 40
1
 40
1
 10
349.109575
 20
566.371976
 30
0.0
 10
349.092567
 20
566.756685
 30
0.0
 10
348.188740
 20
568.136937
 30
0.0
 10
347.103921
 20
569.439207
 30
0.0
  0
SPLINE
  5
12d
100
AcDbEntity
  8
Layer_1
 62
7
100
AcDbSpline
 70
8
 71
3
 72
8
 73
4
 74
0
 40
0
 40
0
 40
0
 40
0
 40
1
 40
1
 40
1
 40
1
 10
347.103921
 20
569.439207
 30
0.0
 10
345.483581
 20
571.384386
 30
0.0
 10
344.864863
 20
571.585615
 30
0.0
 10
343.637206
 20
570.566755
 30
0.0
  0
SPLINE
  5
12e
100
AcDbEntity
  8
Layer_1
 62
7
100
AcDbSpline
 70
8
 71
3
 72
8
 73
4
 74
0
 40
0
 40
0
 40
0
 40
0
 40
1
 40
1
 40
1
 40
1
 10
343.637206
 20
570.566755
 30
0.0
 10
342.815301
 20
569.884646
 30
0.0
 10
342.142866
 20
568.466697
 30
0.0
 10
342.142866
 20
567.415755
 30
0.0
  0
SPLINE
  5
12f
100
AcDbEntity
  8
Layer_1
 62
7
100
AcDbSpline
 70
8
 71
3
 72
8
 73
4
 74
0
 40
0
 40
0
 40
0
 40
0
 40
1
 40
1
 40
1
 40
1
 10
342.142866
 20
567.415755
 30
0.0
 10
342.142866
 20
563.851035
 30
0.0
 10
337.257411
 20
555.842268
 30
0.0
 10
332.561339
 20
551.708617
 30
0.0
  0
SPLINE
  5
130
100
AcDbEntity
  8
Layer_1
 62
7
100
AcDbSpline
 70
8
 71
3
 72
8
 73
4
 74
0
 40
0
 40
0
 40
0
 40
0
 40
1
 40
1
 40
1
 40
1
 10
332.561339
 20
551.708617
 30
0.0
 10
323.280482
 20
543.539254
 30
0.0
 10
310.616164
 20
539.323880
 30
0.0
 10
295.142854
 20
539.253666
 30
0.0
  0
SPLINE
  5
131
100
AcDbEntity
  8
Layer_1
 62
7
100
AcDbSpline
 70
8
 71
3
 72
8
 73
4
 74
0
 40
0
 40
0
 40
0
 40
0
 40
1
 40
1
 40
1
 40
1
 10
295.142854
 20
539.253666
 30
0.0
 10
275.206805
 20
539.163241
 30
0.0
 10
264.824595
 20
547.320189
 30
0.0
 10
270.617505
 20
558.522425
 30
0.0
  0
LWPOLYLINE
  5
132
100
AcDbEntity
  8
Layer_1
 62
7
100
AcDbPolyline
 90
3
 70
0
 10
360.120643
 20
580.637015
 30
0.0
 10
358.360157
 20
585.837357
 30
0.0
 10
357.667285
 20
582.682677
 30
0.0
  0
SPLINE
  5
133
100
AcDbEntity
  8
Layer_1
 62
7
100
AcDbSpline
 70
8
 71
3
 72
8
 73
4
 74
0
 40
0
 40
0
 40
0
 40
0
 40
1
 40
1
 40
1
 40
1
 10
267.367504
 20
561.792526
 30
0.0
 10
261.340373
 20
562.326316
 30
0.0
 10
257.720153
 20
561.061185
 30
0.0
 10
246.782744
 20
554.598907
 30
0.0
  0
SPLINE
  5
134
100
AcDbEntity
  8
Layer_1
 62
7
100
AcDbSpline
 70
8
 71
3
 72
8
 73
4
 74
0
 40
0
 40
0
 40
0
 40
0
 40
1
 40
1
 40
1
 40
1
 10
246.782744
 20
554.598907
 30
0.0
 10
225.208624
 20
541.852044
 30
0.0
 10
215.261725
 20
540.138104
 30
0.0
 10
206.664795
 20
547.686312
 30
0.0
  0
SPLINE
  5
135
100
AcDbEntity
  8
Layer_1
 62
7
100
AcDbSpline
 70
8
 71
3
 72
8
 73
4
 74
0
 40
0
 40
0
 40
0
 40
0
 40
1
 40
1
 40
1
 40
1
 10
206.664795
 20
547.686312
 30
0.0
 10
203.234233
 20
550.698406
 30
0.0
 10
199.678085
 20
558.302060
 30
0.0
 10
198.995434
 20
564.084797
 30
0.0
  0
SPLINE
  5
136
100
AcDbEntity
  8
Layer_1
 62
7
100
AcDbSpline
 70
8
 71
3
 72
8
 73
4
 74
0
 40
0
 40
0
 40
0
 40
0
 40
1
 40
1
 40
1
 40
1
 10
198.995434
 20
564.084797
 30
0.0
 10
198.648454
 20
567.024015
 30
0.0
 10
198.730593
 20
567.080887
 30
0.0
 10
204.167554
 20
567.665685
 30
0.0
  0
SPLINE
  5
137
100
AcDbEntity
  8
Layer_1
 62
7
100
AcDbSpline
 70
8
 71
3
 72
8
 73
4
 74
0
 40
0
 40
0
 40
0
 40
0
 40
1
 40
1
 40
1
 40
1
 10
204.167554
 20
567.665685
 30
0.0
 10
210.486305
 20
568.345337
 30
0.0
 10
213.382094
 20
569.647225
 30
0.0
 10
215.591573
 20
572.801686
 30
0.0
  0
SPLINE
  5
138
100
AcDbEntity
  8
Layer_1
 62
7
100
AcDbSpline
 70
8
 71
3
 72
8
 73
4
 74
0
 40
0
 40
0
 40
0
 40
0
 40
1
 40
1
 40
1
 40
1
 10
215.591573
 20
572.801686
 30
0.0
 10
217.954633
 20
576.175436
 30
0.0
 10
217.474424
 20
578.835445
 30
0.0
 10
213.745643
 20
583.026707
 30
0.0
  0
SPLINE
  5
139
100
AcDbEntity
  8
Layer_1
 62
7
100
AcDbSpline
 70
8
 71
3
 72
8
 73
4
 74
0
 40
0
 40
0
 40
0
 40
0
 40
1
 40
1
 40
1
 40
1
 10
213.745643
 20
583.026707
 30
0.0
 10
210.868994
 20
586.260156
 30
0.0
 10
209.604835
 20
586.909395
 30
0.0
 10
205.495645
 20
587.263737
 30
0.0
  0
SPLINE
  5
13a
100
AcDbEntity
  8
Layer_1
 62
7
100
AcDbSpline
 70
8
 71
3
 72
8
 73
4
 74
0
 40
0
 40
0
 40
0
 40
0
 40
1
 40
1
 40
1
 40
1
 10
205.495645
 20
587.263737
 30
0.0
 10
195.928795
 20
588.088695
 30
0.0
 10
189.704605
 20
581.414437
 30
0.0
 10
188.418325
 20
568.951546
 30
0.0
  0
SPLINE
  5
13b
100
AcDbEntity
  8
Layer_1
 62
7
100
AcDbSpline
 70
8
 71
3
 72
8
 73
4
 74
0
 40
0
 40
0
 40
0
 40
0
 40
1
 40
1
 40
1
 40
1
 10
188.418325
 20
568.951546
 30
0.0
 10
187.246083
 20
557.593625
 30
0.0
 10
193.362803
 20
547.875638
 30
0.0
 10
206.531303
 20
540.174416
 30
0.0
  0
SPLINE
  5
13c
100
AcDbEntity
  8
Layer_1
 62
7
100
AcDbSpline
 70
8
 71
3
 72
8
 73
4
 74
0
 40
0
 40
0
 40
0
 40
0
 40
1
 40
1
 40
1
 40
1
 10
206.531303
 20
540.174416
 30
0.0
 10
217.027485
 20
534.036019
 30
0.0
 10
222.104945
 20
527.389455
 30
0.0
 10
225.672304
 20
515.118132
 30
0.0
  0
SPLINE
  5
13d
100
AcDbEntity
  8
Layer_1
 62
7
100
AcDbSpline
 70
8
 71
3
 72
8
 73
4
 74
0
 40
0
 40
0
 40
0
 40
0
 40
1
 40
1
 40
1
 40
1
 10
225.672304
 20
515.118132
 30
0.0
 10
228.459424
 20
505.530765
 30
0.0
 10
226.549783
 20
481.571433
 30
0.0
 10
222.998513
 20
481.571433
 30
0.0
  0
SPLINE
  5
13e
100
AcDbEntity
  8
Layer_1
 62
7
100
AcDbSpline
 70
8
 71
3
 72
8
 73
4
 74
0
 40
0
 40
0
 40
0
 40
0
 40
1
 40
1
 40
1
 40
1
 10
222.998513
 20
481.571433
 30
0.0
 10
222.476743
 20
481.571433
 30
0.0
 10
221.283264
 20
482.955364
 30
0.0
 10
220.346345
 20
484.646825
 30
0.0
  0
LWPOLYLINE
  5
13f
100
AcDbEntity
  8
Layer_1
 62
7
100
AcDbPolyline
 90
3
 70
0
 10
270.617505
 20
558.522425
 30
0.0
 10
272.092153
 20
561.374087
 30
0.0
 10
267.367504
 20
561.792526
 30
0.0
  0
SPLINE
  5
140
100
AcDbEntity
  8
Layer_1
 62
7
100
AcDbSpline
 70
8
 71
3
 72
8
 73
4
 74
0
 40
0
 40
0
 40
0
 40
0
 40
1
 40
1
 40
1
 40
1
 10
224.012673
 20
501.071443
 30
0.0
 10
224.135923
 20
510.335518
 30
0.0
 10
222.528603
 20
517.254718
 30
0.0
 10
218.559025
 20
524.548148
 30
0.0
  0
SPLINE
  5
141
100
AcDbEntity
  8
Layer_1
 62
7
100
AcDbSpline
 70
8
 71
3
 72
8
 73
4
 74
0
 40
0
 40
0
 40
0
 40
0
 40
1
 40
1
 40
1
 40
1
 10
218.559025
 20
524.548148
 30
0.0
 10
215.408115
 20
530.337402
 30
0.0
 10
213.126293
 20
532.406268
 30
0.0
 10
201.757394
 20
539.781704
 30
0.0
  0
SPLINE
  5
142
100
AcDbEntity
  8
Layer_1
 62
7
100
AcDbSpline
 70
8
 71
3
 72
8
 73
4
 74
0
 40
0
 40
0
 40
0
 40
0
 40
1
 40
1
 40
1
 40
1
 10
201.757394
 20
539.781704
 30
0.0
 10
193.825633
 20
544.927380
 30
0.0
 10
188.809055
 20
550.540233
 30
0.0
 10
186.468934
 20
556.887373
 30
0.0
  0
SPLINE
  5
143
100
AcDbEntity
  8
Layer_1
 62
7
100
AcDbSpline
 70
8
 71
3
 72
8
 73
4
 74
0
 40
0
 40
0
 40
0
 40
0
 40
1
 40
1
 40
1
 40
1
 10
186.468934
 20
556.887373
 30
0.0
 10
183.589685
 20
564.696836
 30
0.0
 10
186.207126
 20
579.501797
 30
0.0
 10
191.518705
 20
585.450326
 30
0.0
  0
SPLINE
  5
144
100
AcDbEntity
  8
Layer_1
 62
7
100
AcDbSpline
 70
8
 71
3
 72
8
 73
4
 74
0
 40
0
 40
0
 40
0
 40
0
 40
1
 40
1
 40
1
 40
1
 10
191.518705
 20
585.450326
 30
0.0
 10
195.879464
 20
590.334026
 30
0.0
 10
205.281743
 20
592.102346
 30
0.0
 10
211.044073
 20
589.122527
 30
0.0
  0
SPLINE
  5
145
100
AcDbEntity
  8
Layer_1
 62
7
100
AcDbSpline
 70
8
 71
3
 72
8
 73
4
 74
0
 40
0
 40
0
 40
0
 40
0
 40
1
 40
1
 40
1
 40
1
 10
211.044073
 20
589.122527
 30
0.0
 10
212.585114
 20
588.325626
 30
0.0
 10
215.312343
 20
586.003507
 30
0.0
 10
217.104585
 20
583.962256
 30
0.0
  0
SPLINE
  5
146
100
AcDbEntity
  8
Layer_1
 62
7
100
AcDbSpline
 70
8
 71
3
 72
8
 73
4
 74
0
 40
0
 40
0
 40
0
 40
0
 40
1
 40
1
 40
1
 40
1
 10
217.104585
 20
583.962256
 30
0.0
 10
219.962894
 20
580.706816
 30
0.0
 10
220.295823
 20
579.748567
 30
0.0
 10
219.814733
 20
576.161776
 30
0.0
  0
SPLINE
  5
147
100
AcDbEntity
  8
Layer_1
 62
7
100
AcDbSpline
 70
8
 71
3
 72
8
 73
4
 74
0
 40
0
 40
0
 40
0
 40
0
 40
1
 40
1
 40
1
 40
1
 10
219.814733
 20
576.161776
 30
0.0
 10
219.033833
 20
570.339765
 30
0.0
 10
213.991203
 20
565.885525
 30
0.0
 10
207.154253
 20
564.978566
 30
0.0
  0
SPLINE
  5
148
100
AcDbEntity
  8
Layer_1
 62
7
100
AcDbSpline
 70
8
 71
3
 72
8
 73
4
 74
0
 40
0
 40
0
 40
0
 40
0
 40
1
 40
1
 40
1
 40
1
 10
207.154253
 20
564.978566
 30
0.0
 10
202.052775
 20
564.301837
 30
0.0
 10
202.044665
 20
564.294906
 30
0.0
 10
202.715184
 20
561.186017
 30
0.0
  0
SPLINE
  5
149
100
AcDbEntity
  8
Layer_1
 62
7
100
AcDbSpline
 70
8
 71
3
 72
8
 73
4
 74
0
 40
0
 40
0
 40
0
 40
0
 40
1
 40
1
 40
1
 40
1
 10
202.715184
 20
561.186017
 30
0.0
 10
204.795224
 20
551.541827
 30
0.0
 10
210.116713
 20
546.558860
 30
0.0
 10
218.297225
 20
546.595200
 30
0.0
  0
SPLINE
  5
14a
100
AcDbEntity
  8
Layer_1
 62
7
100
AcDbSpline
 70
8
 71
3
 72
8
 73
4
 74
0
 40
0
 40
0
 40
0
 40
0
 40
1
 40
1
 40
1
 40
1
 10
218.297225
 20
546.595200
 30
0.0
 10
224.843224
 20
546.624397
 30
0.0
 10
231.411444
 20
549.222094
 30
0.0
 10
245.282255
 20
557.268208
 30
0.0
  0
SPLINE
  5
14b
100
AcDbEntity
  8
Layer_1
 62
7
100
AcDbSpline
 70
8
 71
3
 72
8
 73
4
 74
0
 40
0
 40
0
 40
0
 40
0
 40
1
 40
1
 40
1
 40
1
 10
245.282255
 20
557.268208
 30
0.0
 10
257.856205
 20
564.562066
 30
0.0
 10
260.701254
 20
565.575817
 30
0.0
 10
268.542074
 20
565.556136
 30
0.0
  0
SPLINE
  5
14c
100
AcDbEntity
  8
Layer_1
 62
7
100
AcDbSpline
 70
8
 71
3
 72
8
 73
4
 74
0
 40
0
 40
0
 40
0
 40
0
 40
1
 40
1
 40
1
 40
1
 10
268.542074
 20
565.556136
 30
0.0
 10
277.233083
 20
565.534310
 30
0.0
 10
277.955164
 20
564.813686
 30
0.0
 10
274.755963
 20
559.354666
 30
0.0
  0
SPLINE
  5
14d
100
AcDbEntity
  8
Layer_1
 62
7
100
AcDbSpline
 70
8
 71
3
 72
8
 73
4
 74
0
 40
0
 40
0
 40
0
 40
0
 40
1
 40
1
 40
1
 40
1
 10
274.755963
 20
559.354666
 30
0.0
 10
271.542214
 20
553.870828
 30
0.0
 10
271.446894
 20
550.573909
 30
0.0
 10
274.421324
 20
547.779543
 30
0.0
  0
SPLINE
  5
14e
100
AcDbEntity
  8
Layer_1
 62
7
100
AcDbSpline
 70
8
 71
3
 72
8
 73
4
 74
0
 40
0
 40
0
 40
0
 40
0
 40
1
 40
1
 40
1
 40
1
 10
274.421324
 20
547.779543
 30
0.0
 10
278.269875
 20
544.164038
 30
0.0
 10
284.580510
 20
542.571449
 30
0.0
 10
295.058494
 20
542.571449
 30
0.0
  0
SPLINE
  5
14f
100
AcDbEntity
  8
Layer_1
 62
7
100
AcDbSpline
 70
8
 71
3
 72
8
 73
4
 74
0
 40
0
 40
0
 40
0
 40
0
 40
1
 40
1
 40
1
 40
1
 10
295.058494
 20
542.571449
 30
0.0
 10
305.776800
 20
542.571449
 30
0.0
 10
313.830992
 20
544.269798
 30
0.0
 10
322.088372
 20
548.271099
 30
0.0
  0
SPLINE
  5
150
100
AcDbEntity
  8
Layer_1
 62
7
100
AcDbSpline
 70
8
 71
3
 72
8
 73
4
 74
0
 40
0
 40
0
 40
0
 40
0
 40
1
 40
1
 40
1
 40
1
 10
322.088372
 20
548.271099
 30
0.0
 10
331.279795
 20
552.725036
 30
0.0
 10
336.525704
 20
559.180185
 30
0.0
 10
339.779650
 20
570.040515
 30
0.0
  0
SPLINE
  5
151
100
AcDbEntity
  8
Layer_1
 62
7
100
AcDbSpline
 70
8
 71
3
 72
8
 73
4
 74
0
 40
0
 40
0
 40
0
 40
0
 40
1
 40
1
 40
1
 40
1
 10
339.779650
 20
570.040515
 30
0.0
 10
340.275515
 20
571.695395
 30
0.0
 10
341.926356
 20
573.687207
 30
0.0
 10
343.509364
 20
574.540515
 30
0.0
  0
SPLINE
  5
152
100
AcDbEntity
  8
Layer_1
 62
7
100
AcDbSpline
 70
8
 71
3
 72
8
 73
4
 74
0
 40
0
 40
0
 40
0
 40
0
 40
1
 40
1
 40
1
 40
1
 10
343.509364
 20
574.540515
 30
0.0
 10
346.161572
 20
575.970146
 30
0.0
 10
346.425364
 20
575.939115
 30
0.0
 10
347.496180
 20
574.071446
 30
0.0
  0
SPLINE
  5
153
100
AcDbEntity
  8
Layer_1
 62
7
100
AcDbSpline
 70
8
 71
3
 72
8
 73
4
 74
0
 40
0
 40
0
 40
0
 40
0
 40
1
 40
1
 40
1
 40
1
 10
347.496180
 20
574.071446
 30
0.0
 10
348.126832
 20
572.971445
 30
0.0
 10
350.925420
 20
569.777097
 30
0.0
 10
353.715250
 20
566.972887
 30
0.0
  0
SPLINE
  5
154
100
AcDbEntity
  8
Layer_1
 62
7
100
AcDbSpline
 70
8
 71
3
 72
8
 73
4
 74
0
 40
0
 40
0
 40
0
 40
0
 40
1
 40
1
 40
1
 40
1
 10
353.715250
 20
566.972887
 30
0.0
 10
362.191776
 20
558.452667
 30
0.0
 10
402.036690
 20
539.571458
 30
0.0
 10
411.540350
 20
539.571458
 30
0.0
  0
SPLINE
  5
155
100
AcDbEntity
  8
Layer_1
 62
7
100
AcDbSpline
 70
8
 71
3
 72
8
 73
4
 74
0
 40
0
 40
0
 40
0
 40
0
 40
1
 40
1
 40
1
 40
1
 10
411.540350
 20
539.571458
 30
0.0
 10
413.491323
 20
539.571458
 30
0.0
 10
414.142866
 20
540.081043
 30
0.0
 10
414.142866
 20
541.606989
 30
0.0
  0
SPLINE
  5
156
100
AcDbEntity
  8
Layer_1
 62
7
100
AcDbSpline
 70
8
 71
3
 72
8
 73
4
 74
0
 40
0
 40
0
 40
0
 40
0
 40
1
 40
1
 40
1
 40
1
 10
414.142866
 20
541.606989
 30
0.0
 10
414.142866
 20
544.031433
 30
0.0
 10
409.996035
 20
545.987934
 30
0.0
 10
395.141953
 20
550.571726
 30
0.0
  0
SPLINE
  5
157
100
AcDbEntity
  8
Layer_1
 62
7
100
AcDbSpline
 70
8
 71
3
 72
8
 73
4
 74
0
 40
0
 40
0
 40
0
 40
0
 40
1
 40
1
 40
1
 40
1
 10
395.141953
 20
550.571726
 30
0.0
 10
389.203767
 20
552.404183
 30
0.0
 10
385.171880
 20
554.158573
 30
0.0
 10
385.390630
 20
554.814794
 30
0.0
  0
SPLINE
  5
158
100
AcDbEntity
  8
Layer_1
 62
7
100
AcDbSpline
 70
8
 71
3
 72
8
 73
4
 74
0
 40
0
 40
0
 40
0
 40
0
 40
1
 40
1
 40
1
 40
1
 10
385.390630
 20
554.814794
 30
0.0
 10
386.693943
 20
558.724745
 30
0.0
 10
404.101361
 20
559.754666
 30
0.0
 10
414.515707
 20
556.538003
 30
0.0
  0
SPLINE
  5
159
100
AcDbEntity
  8
Layer_1
 62
7
100
AcDbSpline
 70
8
 71
3
 72
8
 73
4
 74
0
 40
0
 40
0
 40
0
 40
0
 40
1
 40
1
 40
1
 40
1
 10
414.515707
 20
556.538003
 30
0.0
 10
419.887020
 20
554.878970
 30
0.0
 10
421.777644
 20
553.692926
 30
0.0
 10
424.783871
 20
550.096526
 30
0.0
  0
SPLINE
  5
15a
100
AcDbEntity
  8
Layer_1
 62
7
100
AcDbSpline
 70
8
 71
3
 72
8
 73
4
 74
0
 40
0
 40
0
 40
0
 40
0
 40
1
 40
1
 40
1
 40
1
 10
424.783871
 20
550.096526
 30
0.0
 10
428.387357
 20
545.785625
 30
0.0
 10
428.530394
 20
545.720485
 30
0.0
 10
431.276060
 20
547.140331
 30
0.0
  0
SPLINE
  5
15b
100
AcDbEntity
  8
Layer_1
 62
7
100
AcDbSpline
 70
8
 71
3
 72
8
 73
4
 74
0
 40
0
 40
0
 40
0
 40
0
 40
1
 40
1
 40
1
 40
1
 10
431.276060
 20
547.140331
 30
0.0
 10
433.676211
 20
548.381509
 30
0.0
 10
436.142863
 20
551.306948
 30
0.0
 10
436.142863
 20
552.912378
 30
0.0
  0
SPLINE
  5
15c
100
AcDbEntity
  8
Layer_1
 62
7
100
AcDbSpline
 70
8
 71
3
 72
8
 73
4
 74
0
 40
0
 40
0
 40
0
 40
0
 40
1
 40
1
 40
1
 40
1
 10
436.142863
 20
552.912378
 30
0.0
 10
436.142863
 20
553.856967
 30
0.0
 10
420.799606
 20
559.741357
 30
0.0
 10
413.318296
 20
561.665976
 30
0.0
  0
SPLINE
  5
15d
100
AcDbEntity
  8
Layer_1
 62
7
100
AcDbSpline
 70
8
 71
3
 72
8
 73
4
 74
0
 40
0
 40
0
 40
0
 40
0
 40
1
 40
1
 40
1
 40
1
 10
413.318296
 20
561.665976
 30
0.0
 10
405.035802
 20
563.796706
 30
0.0
 10
403.370419
 20
563.707205
 30
0.0
 10
389.142850
 20
560.366855
 30
0.0
  0
SPLINE
  5
15e
100
AcDbEntity
  8
Layer_1
 62
7
100
AcDbSpline
 70
8
 71
3
 72
8
 73
4
 74
0
 40
0
 40
0
 40
0
 40
0
 40
1
 40
1
 40
1
 40
1
 10
389.142850
 20
560.366855
 30
0.0
 10
379.201266
 20
558.032769
 30
0.0
 10
373.603663
 20
558.341150
 30
0.0
 10
366.747931
 20
561.600675
 30
0.0
  0
SPLINE
  5
15f
100
AcDbEntity
  8
Layer_1
 62
7
100
AcDbSpline
 70
8
 71
3
 72
8
 73
4
 74
0
 40
0
 40
0
 40
0
 40
0
 40
1
 40
1
 40
1
 40
1
 10
366.747931
 20
561.600675
 30
0.0
 10
356.702117
 20
566.376905
 30
0.0
 10
352.889773
 20
573.195135
 30
0.0
 10
354.601191
 20
583.324826
 30
0.0
  0
SPLINE
  5
160
100
AcDbEntity
  8
Layer_1
 62
7
100
AcDbSpline
 70
8
 71
3
 72
8
 73
4
 74
0
 40
0
 40
0
 40
0
 40
0
 40
1
 40
1
 40
1
 40
1
 10
354.601191
 20
583.324826
 30
0.0
 10
355.355093
 20
587.787236
 30
0.0
 10
358.750403
 20
593.932017
 30
0.0
 10
360.026447
 20
593.143387
 30
0.0
  0
SPLINE
  5
161
100
AcDbEntity
  8
Layer_1
 62
7
100
AcDbSpline
 70
8
 71
3
 72
8
 73
4
 74
0
 40
0
 40
0
 40
0
 40
0
 40
1
 40
1
 40
1
 40
1
 10
360.026447
 20
593.143387
 30
0.0
 10
360.495496
 20
592.853505
 30
0.0
 10
361.187717
 20
590.290957
 30
0.0
 10
361.564724
 20
587.448816
 30
0.0
  0
SPLINE
  5
162
100
AcDbEntity
  8
Layer_1
 62
7
100
AcDbSpline
 70
8
 71
3
 72
8
 73
4
 74
0
 40
0
 40
0
 40
0
 40
0
 40
1
 40
1
 40
1
 40
1
 10
361.564724
 20
587.448816
 30
0.0
 10
362.390995
 20
581.220196
 30
0.0
 10
365.161209
 20
575.488777
 30
0.0
 10
368.685326
 20
572.716687
 30
0.0
  0
SPLINE
  5
163
100
AcDbEntity
  8
Layer_1
 62
7
100
AcDbSpline
 70
8
 71
3
 72
8
 73
4
 74
0
 40
0
 40
0
 40
0
 40
0
 40
1
 40
1
 40
1
 40
1
 10
368.685326
 20
572.716687
 30
0.0
 10
372.401773
 20
569.793336
 30
0.0
 10
378.161575
 20
569.240855
 30
0.0
 10
390.149178
 20
570.657855
 30
0.0
  0
SPLINE
  5
164
100
AcDbEntity
  8
Layer_1
 62
7
100
AcDbSpline
 70
8
 71
3
 72
8
 73
4
 74
0
 40
0
 40
0
 40
0
 40
0
 40
1
 40
1
 40
1
 40
1
 10
390.149178
 20
570.657855
 30
0.0
 10
404.683880
 20
572.375945
 30
0.0
 10
410.254866
 20
572.023395
 30
0.0
 10
423.813657
 20
568.527406
 30
0.0
  0
SPLINE
  5
165
100
AcDbEntity
  8
Layer_1
 62
7
100
AcDbSpline
 70
8
 71
3
 72
8
 73
4
 74
0
 40
0
 40
0
 40
0
 40
0
 40
1
 40
1
 40
1
 40
1
 10
423.813657
 20
568.527406
 30
0.0
 10
437.470441
 20
565.006147
 30
0.0
 10
446.073222
 20
561.080015
 30
0.0
 10
447.857036
 20
557.554507
 30
0.0
  0
SPLINE
  5
166
100
AcDbEntity
  8
Layer_1
 62
7
100
AcDbSpline
 70
8
 71
3
 72
8
 73
4
 74
0
 40
0
 40
0
 40
0
 40
0
 40
1
 40
1
 40
1
 40
1
 10
447.857036
 20
557.554507
 30
0.0
 10
448.548009
 20
556.188832
 30
0.0
 10
449.120013
 20
552.005206
 30
0.0
 10
449.128120
 20
548.257578
 30
0.0
  0
LWPOLYLINE
  5
167
100
AcDbEntity
  8
Layer_1
 62
7
100
AcDbPolyline
 90
1
 70
1
 10
220.346345
 20
484.646825
 30
0.0
  0
SPLINE
  5
168
100
AcDbEntity
  8
Layer_1
 62
7
100
AcDbSpline
 70
8
 71
3
 72
8
 73
4
 74
0
 40
0
 40
0
 40
0
 40
0
 40
1
 40
1
 40
1
 40
1
 10
455.392290
 20
545.757562
 30
0.0
 10
483.025465
 20
564.830495
 30
0.0
 10
486.433162
 20
583.692177
 30
0.0
 10
465.788806
 20
603.302287
 30
0.0
  0
SPLINE
  5
169
100
AcDbEntity
  8
Layer_1
 62
7
100
AcDbSpline
 70
8
 71
3
 72
8
 73
4
 74
0
 40
0
 40
0
 40
0
 40
0
 40
1
 40
1
 40
1
 40
1
 10
465.788806
 20
603.302287
 30
0.0
 10
456.770466
 20
611.868827
 30
0.0
 10
445.701997
 20
618.778675
 30
0.0
 10
421.992964
 20
630.643235
 30
0.0
  0
SPLINE
  5
16a
100
AcDbEntity
  8
Layer_1
 62
7
100
AcDbSpline
 70
8
 71
3
 72
8
 73
4
 74
0
 40
0
 40
0
 40
0
 40
0
 40
1
 40
1
 40
1
 40
1
 10
421.992964
 20
630.643235
 30
0.0
 10
411.900094
 20
635.693947
 30
0.0
 10
401.781402
 20
641.105116
 30
0.0
 10
399.506995
 20
642.668037
 30
0.0
  0
SPLINE
  5
16b
100
AcDbEntity
  8
Layer_1
 62
7
100
AcDbSpline
 70
8
 71
3
 72
8
 73
4
 74
0
 40
0
 40
0
 40
0
 40
0
 40
1
 40
1
 40
1
 40
1
 10
399.506995
 20
642.668037
 30
0.0
 10
393.802469
 20
646.588035
 30
0.0
 10
390.021534
 20
652.721916
 30
0.0
 10
384.552340
 20
666.929347
 30
0.0
  0
SPLINE
  5
16c
100
AcDbEntity
  8
Layer_1
 62
7
100
AcDbSpline
 70
8
 71
3
 72
8
 73
4
 74
0
 40
0
 40
0
 40
0
 40
0
 40
1
 40
1
 40
1
 40
1
 10
384.552340
 20
666.929347
 30
0.0
 10
379.148457
 20
680.967017
 30
0.0
 10
377.188157
 20
684.624376
 30
0.0
 10
372.236995
 20
689.906177
 30
0.0
  0
SPLINE
  5
16d
100
AcDbEntity
  8
Layer_1
 62
7
100
AcDbSpline
 70
8
 71
3
 72
8
 73
4
 74
0
 40
0
 40
0
 40
0
 40
0
 40
1
 40
1
 40
1
 40
1
 10
372.236995
 20
689.906177
 30
0.0
 10
366.012057
 20
696.546816
 30
0.0
 10
356.693868
 20
699.964866
 30
0.0
 10
335.142312
 20
703.513086
 30
0.0
  0
SPLINE
  5
16e
100
AcDbEntity
  8
Layer_1
 62
7
100
AcDbSpline
 70
8
 71
3
 72
8
 73
4
 74
0
 40
0
 40
0
 40
0
 40
0
 40
1
 40
1
 40
1
 40
1
 10
335.142312
 20
703.513086
 30
0.0
 10
303.463106
 20
708.728698
 30
0.0
 10
256.142305
 20
708.760290
 30
0.0
 10
256.142305
 20
703.565782
 30
0.0
  0
SPLINE
  5
16f
100
AcDbEntity
  8
Layer_1
 62
7
100
AcDbSpline
 70
8
 71
3
 72
8
 73
4
 74
0
 40
0
 40
0
 40
0
 40
0
 40
1
 40
1
 40
1
 40
1
 10
256.142305
 20
703.565782
 30
0.0
 10
256.142305
 20
703.120303
 30
0.0
 10
259.935205
 20
700.232114
 30
0.0
 10
264.570973
 20
697.147574
 30
0.0
  0
SPLINE
  5
170
100
AcDbEntity
  8
Layer_1
 62
7
100
AcDbSpline
 70
8
 71
3
 72
8
 73
4
 74
0
 40
0
 40
0
 40
0
 40
0
 40
1
 40
1
 40
1
 40
1
 10
264.570973
 20
697.147574
 30
0.0
 10
278.248354
 20
688.046964
 30
0.0
 10
283.254905
 20
680.132563
 30
0.0
 10
283.913093
 20
666.571402
 30
0.0
  0
SPLINE
  5
171
100
AcDbEntity
  8
Layer_1
 62
7
100
AcDbSpline
 70
8
 71
3
 72
8
 73
4
 74
0
 40
0
 40
0
 40
0
 40
0
 40
1
 40
1
 40
1
 40
1
 10
283.913093
 20
666.571402
 30
0.0
 10
284.479058
 20
654.910044
 30
0.0
 10
283.615058
 20
653.024432
 30
0.0
 10
277.323403
 20
652.189813
 30
0.0
  0
SPLINE
  5
172
100
AcDbEntity
  8
Layer_1
 62
7
100
AcDbSpline
 70
8
 71
3
 72
8
 73
4
 74
0
 40
0
 40
0
 40
0
 40
0
 40
1
 40
1
 40
1
 40
1
 10
277.323403
 20
652.189813
 30
0.0
 10
274.587593
 20
651.826894
 30
0.0
 10
269.040155
 20
650.633292
 30
0.0
 10
264.995753
 20
649.537364
 30
0.0
  0
SPLINE
  5
173
100
AcDbEntity
  8
Layer_1
 62
7
100
AcDbSpline
 70
8
 71
3
 72
8
 73
4
 74
0
 40
0
 40
0
 40
0
 40
0
 40
1
 40
1
 40
1
 40
1
 10
264.995753
 20
649.537364
 30
0.0
 10
260.951355
 20
648.441434
 30
0.0
 10
254.378653
 20
646.842594
 30
0.0
 10
250.389743
 20
645.984394
 30
0.0
  0
LWPOLYLINE
  5
174
100
AcDbEntity
  8
Layer_1
 62
7
100
AcDbPolyline
 90
3
 70
0
 10
449.128120
 20
548.257578
 30
0.0
 10
449.142293
 20
541.443713
 30
0.0
 10
455.392290
 20
545.757562
 30
0.0
  0
SPLINE
  5
175
100
AcDbEntity
  8
Layer_1
 62
7
100
AcDbSpline
 70
8
 71
3
 72
8
 73
4
 74
0
 40
0
 40
0
 40
0
 40
0
 40
1
 40
1
 40
1
 40
1
 10
240.534343
 20
647.517334
 30
0.0
 10
236.069065
 20
652.824023
 30
0.0
 10
229.687554
 20
655.910124
 30
0.0
 10
223.270053
 20
655.866363
 30
0.0
  0
SPLINE
  5
176
100
AcDbEntity
  8
Layer_1
 62
7
100
AcDbSpline
 70
8
 71
3
 72
8
 73
4
 74
0
 40
0
 40
0
 40
0
 40
0
 40
1
 40
1
 40
1
 40
1
 10
223.270053
 20
655.866363
 30
0.0
 10
216.019375
 20
655.816870
 30
0.0
 10
210.823084
 20
653.670763
 30
0.0
 10
193.770703
 20
643.682642
 30
0.0
  0
SPLINE
  5
177
100
AcDbEntity
  8
Layer_1
 62
7
100
AcDbSpline
 70
8
 71
3
 72
8
 73
4
 74
0
 40
0
 40
0
 40
0
 40
0
 40
1
 40
1
 40
1
 40
1
 10
193.770703
 20
643.682642
 30
0.0
 10
178.083323
 20
634.494064
 30
0.0
 10
172.670083
 20
630.506855
 30
0.0
 10
170.732594
 20
626.713535
 30
0.0
  0
SPLINE
  5
178
100
AcDbEntity
  8
Layer_1
 62
7
100
AcDbSpline
 70
8
 71
3
 72
8
 73
4
 74
0
 40
0
 40
0
 40
0
 40
0
 40
1
 40
1
 40
1
 40
1
 10
170.732594
 20
626.713535
 30
0.0
 10
169.361323
 20
624.028802
 30
0.0
 10
169.982603
 20
620.406173
 30
0.0
 10
172.031474
 20
619.139903
 30
0.0
  0
SPLINE
  5
179
100
AcDbEntity
  8
Layer_1
 62
7
100
AcDbSpline
 70
8
 71
3
 72
8
 73
4
 74
0
 40
0
 40
0
 40
0
 40
0
 40
1
 40
1
 40
1
 40
1
 10
172.031474
 20
619.139903
 30
0.0
 10
172.597603
 20
618.790014
 30
0.0
 10
178.452264
 20
620.318962
 30
0.0
 10
185.041823
 20
622.537574
 30
0.0
  0
SPLINE
  5
17a
100
AcDbEntity
  8
Layer_1
 62
7
100
AcDbSpline
 70
8
 71
3
 72
8
 73
4
 74
0
 40
0
 40
0
 40
0
 40
0
 40
1
 40
1
 40
1
 40
1
 10
185.041823
 20
622.537574
 30
0.0
 10
198.454405
 20
627.053414
 30
0.0
 10
204.142343
 20
627.699563
 30
0.0
 10
204.142343
 20
624.707444
 30
0.0
  0
SPLINE
  5
17b
100
AcDbEntity
  8
Layer_1
 62
7
100
AcDbSpline
 70
8
 71
3
 72
8
 73
4
 74
0
 40
0
 40
0
 40
0
 40
0
 40
1
 40
1
 40
1
 40
1
 10
204.142343
 20
624.707444
 30
0.0
 10
204.142343
 20
623.658404
 30
0.0
 10
202.376203
 20
621.619512
 30
0.0
 10
200.102774
 20
620.044024
 30
0.0
  0
SPLINE
  5
17c
100
AcDbEntity
  8
Layer_1
 62
7
100
AcDbSpline
 70
8
 71
3
 72
8
 73
4
 74
0
 40
0
 40
0
 40
0
 40
0
 40
1
 40
1
 40
1
 40
1
 10
200.102774
 20
620.044024
 30
0.0
 10
197.881013
 20
618.504344
 30
0.0
 10
188.341203
 20
609.179284
 30
0.0
 10
178.903205
 20
599.321673
 30
0.0
  0
SPLINE
  5
17d
100
AcDbEntity
  8
Layer_1
 62
7
100
AcDbSpline
 70
8
 71
3
 72
8
 73
4
 74
0
 40
0
 40
0
 40
0
 40
0
 40
1
 40
1
 40
1
 40
1
 10
178.903205
 20
599.321673
 30
0.0
 10
159.159424
 20
578.700082
 30
0.0
 10
158.471833
 20
578.251502
 30
0.0
 10
135.642345
 20
571.098563
 30
0.0
  0
SPLINE
  5
17e
100
AcDbEntity
  8
Layer_1
 62
7
100
AcDbSpline
 70
8
 71
3
 72
8
 73
4
 74
0
 40
0
 40
0
 40
0
 40
0
 40
1
 40
1
 40
1
 40
1
 10
135.642345
 20
571.098563
 30
0.0
 10
114.307654
 20
564.413973
 30
0.0
 10
105.168484
 20
559.810063
 30
0.0
 10
97.080897
 20
551.673014
 30
0.0
  0
SPLINE
  5
17f
100
AcDbEntity
  8
Layer_1
 62
7
100
AcDbSpline
 70
8
 71
3
 72
8
 73
4
 74
0
 40
0
 40
0
 40
0
 40
0
 40
1
 40
1
 40
1
 40
1
 10
97.080897
 20
551.673014
 30
0.0
 10
90.564676
 20
545.116932
 30
0.0
 10
86.184201
 20
538.507077
 30
0.0
 10
82.212724
 20
529.237814
 30
0.0
  0
LWPOLYLINE
  5
180
100
AcDbEntity
  8
Layer_1
 62
7
100
AcDbPolyline
 90
3
 70
0
 10
250.389743
 20
645.984394
 30
0.0
 10
243.137183
 20
644.424032
 30
0.0
 10
240.534343
 20
647.517334
 30
0.0
  0
SPLINE
  5
181
100
AcDbEntity
  8
Layer_1
 62
7
100
AcDbSpline
 70
8
 71
3
 72
8
 73
4
 74
0
 40
0
 40
0
 40
0
 40
0
 40
1
 40
1
 40
1
 40
1
 10
82.892032
 20
526.529169
 30
0.0
 10
94.458552
 20
535.465928
 30
0.0
 10
101.518101
 20
538.578198
 30
0.0
 10
114.816614
 20
540.603354
 30
0.0
  0
SPLINE
  5
182
100
AcDbEntity
  8
Layer_1
 62
7
100
AcDbSpline
 70
8
 71
3
 72
8
 73
4
 74
0
 40
0
 40
0
 40
0
 40
0
 40
1
 40
1
 40
1
 40
1
 10
114.816614
 20
540.603354
 30
0.0
 10
123.541903
 20
541.932094
 30
0.0
 10
135.425273
 20
541.318082
 30
0.0
 10
147.066953
 20
538.936980
 30
0.0
  0
SPLINE
  5
183
100
AcDbEntity
  8
Layer_1
 62
7
100
AcDbSpline
 70
8
 71
3
 72
8
 73
4
 74
0
 40
0
 40
0
 40
0
 40
0
 40
1
 40
1
 40
1
 40
1
 10
147.066953
 20
538.936980
 30
0.0
 10
159.625925
 20
536.368252
 30
0.0
 10
180.245645
 20
529.606006
 30
0.0
 10
188.340214
 20
525.401376
 30
0.0
  0
SPLINE
  5
184
100
AcDbEntity
  8
Layer_1
 62
7
100
AcDbSpline
 70
8
 71
3
 72
8
 73
4
 74
0
 40
0
 40
0
 40
0
 40
0
 40
1
 40
1
 40
1
 40
1
 10
188.340214
 20
525.401376
 30
0.0
 10
197.963614
 20
520.402620
 30
0.0
 10
208.164243
 20
510.040233
 30
0.0
 10
216.660733
 20
496.631735
 30
0.0
  0
SPLINE
  5
185
100
AcDbEntity
  8
Layer_1
 62
7
100
AcDbSpline
 70
8
 71
3
 72
8
 73
4
 74
0
 40
0
 40
0
 40
0
 40
0
 40
1
 40
1
 40
1
 40
1
 10
216.660733
 20
496.631735
 30
0.0
 10
222.415464
 20
487.550069
 30
0.0
 10
222.666304
 20
487.303512
 30
0.0
 10
223.274032
 20
490.131723
 30
0.0
  0
SPLINE
  5
186
100
AcDbEntity
  8
Layer_1
 62
7
100
AcDbSpline
 70
8
 71
3
 72
8
 73
4
 74
0
 40
0
 40
0
 40
0
 40
0
 40
1
 40
1
 40
1
 40
1
 10
223.274032
 20
490.131723
 30
0.0
 10
223.621455
 20
491.748576
 30
0.0
 10
223.953613
 20
496.671449
 30
0.0
 10
224.012163
 20
501.071443
 30
0.0
  0
LWPOLYLINE
  5
187
100
AcDbEntity
  8
Layer_1
 62
7
100
AcDbPolyline
 90
3
 70
0
 10
82.212724
 20
529.237814
 30
0.0
 10
80.141717
 20
524.404176
 30
0.0
 10
82.892032
 20
526.529169
 30
0.0
  0
SPLINE
  5
188
100
AcDbEntity
  8
Layer_1
 62
7
100
AcDbSpline
 70
8
 71
3
 72
8
 73
4
 74
0
 40
0
 40
0
 40
0
 40
0
 40
1
 40
1
 40
1
 40
1
 10
185.392854
 20
529.602605
 30
0.0
 10
182.707024
 20
530.682180
 30
0.0
 10
182.724644
 20
530.449767
 30
0.0
 10
184.774635
 20
537.755839
 30
0.0
  0
SPLINE
  5
189
100
AcDbEntity
  8
Layer_1
 62
7
100
AcDbSpline
 70
8
 71
3
 72
8
 73
4
 74
0
 40
0
 40
0
 40
0
 40
0
 40
1
 40
1
 40
1
 40
1
 10
184.774635
 20
537.755839
 30
0.0
 10
185.953504
 20
541.957294
 30
0.0
 10
186.883894
 20
543.571455
 30
0.0
 10
188.126745
 20
543.571455
 30
0.0
  0
SPLINE
  5
18a
100
AcDbEntity
  8
Layer_1
 62
7
100
AcDbSpline
 70
8
 71
3
 72
8
 73
4
 74
0
 40
0
 40
0
 40
0
 40
0
 40
1
 40
1
 40
1
 40
1
 10
188.126745
 20
543.571455
 30
0.0
 10
193.170115
 20
543.571455
 30
0.0
 10
203.313285
 20
531.559956
 30
0.0
 10
200.027293
 20
529.478872
 30
0.0
  0
SPLINE
  5
18b
100
AcDbEntity
  8
Layer_1
 62
7
100
AcDbSpline
 70
8
 71
3
 72
8
 73
4
 74
0
 40
0
 40
0
 40
0
 40
0
 40
1
 40
1
 40
1
 40
1
 10
200.027293
 20
529.478872
 30
0.0
 10
198.239233
 20
528.346460
 30
0.0
 10
188.309115
 20
528.430422
 30
0.0
 10
185.392854
 20
529.602463
 30
0.0
  0
LWPOLYLINE
  5
18c
100
AcDbEntity
  8
Layer_1
 62
7
100
AcDbPolyline
 90
2
 70
0
 10
224.012163
 20
501.071443
 30
0.0
 10
224.012673
 20
501.071443
 30
0.0
  0
SPLINE
  5
18d
100
AcDbEntity
  8
Layer_1
 62
7
100
AcDbSpline
 70
8
 71
3
 72
8
 73
4
 74
0
 40
0
 40
0
 40
0
 40
0
 40
1
 40
1
 40
1
 40
1
 10
198.139113
 20
531.321449
 30
0.0
 10
198.129192
 20
533.302498
 30
0.0
 10
193.909473
 20
538.640759
 30
0.0
 10
191.277544
 20
540.001786
 30
0.0
  0
SPLINE
  5
18e
100
AcDbEntity
  8
Layer_1
 62
7
100
AcDbSpline
 70
8
 71
3
 72
8
 73
4
 74
0
 40
0
 40
0
 40
0
 40
0
 40
1
 40
1
 40
1
 40
1
 10
191.277544
 20
540.001786
 30
0.0
 10
188.358503
 20
541.511291
 30
0.0
 10
188.310974
 20
541.492469
 30
0.0
 10
187.233324
 20
538.401118
 30
0.0
  0
SPLINE
  5
18f
100
AcDbEntity
  8
Layer_1
 62
7
100
AcDbSpline
 70
8
 71
3
 72
8
 73
4
 74
0
 40
0
 40
0
 40
0
 40
0
 40
1
 40
1
 40
1
 40
1
 10
187.233324
 20
538.401118
 30
0.0
 10
185.799745
 20
534.288756
 30
0.0
 10
185.853923
 20
531.854702
 30
0.0
 10
187.392858
 20
531.233717
 30
0.0
  0
SPLINE
  5
190
100
AcDbEntity
  8
Layer_1
 62
7
100
AcDbSpline
 70
8
 71
3
 72
8
 73
4
 74
0
 40
0
 40
0
 40
0
 40
0
 40
1
 40
1
 40
1
 40
1
 10
187.392858
 20
531.233717
 30
0.0
 10
189.394098
 20
530.426211
 30
0.0
 10
198.143226
 20
530.497616
 30
0.0
 10
198.139116
 20
531.321307
 30
0.0
  0
LWPOLYLINE
  5
191
100
AcDbEntity
  8
Layer_1
 62
7
100
AcDbPolyline
 90
2
 70
0
 10
185.392854
 20
529.602463
 30
0.0
 10
185.392854
 20
529.602605
 30
0.0
  0
SPLINE
  5
192
100
AcDbEntity
  8
Layer_1
 62
7
100
AcDbSpline
 70
8
 71
3
 72
8
 73
4
 74
0
 40
0
 40
0
 40
0
 40
0
 40
1
 40
1
 40
1
 40
1
 10
169.951493
 20
535.597767
 30
0.0
 10
167.371245
 20
536.032885
 30
0.0
 10
161.071245
 20
537.586696
 30
0.0
 10
155.951495
 20
539.050706
 30
0.0
  0
SPLINE
  5
193
100
AcDbEntity
  8
Layer_1
 62
7
100
AcDbSpline
 70
8
 71
3
 72
8
 73
4
 74
0
 40
0
 40
0
 40
0
 40
0
 40
1
 40
1
 40
1
 40
1
 10
155.951495
 20
539.050706
 30
0.0
 10
150.831743
 20
540.514715
 30
0.0
 10
143.381273
 20
542.646057
 30
0.0
 10
139.394903
 20
543.787058
 30
0.0
  0
SPLINE
  5
194
100
AcDbEntity
  8
Layer_1
 62
7
100
AcDbSpline
 70
8
 71
3
 72
8
 73
4
 74
0
 40
0
 40
0
 40
0
 40
0
 40
1
 40
1
 40
1
 40
1
 10
139.394903
 20
543.787058
 30
0.0
 10
135.408535
 20
544.928032
 30
0.0
 10
131.669444
 20
546.436942
 30
0.0
 10
131.085805
 20
547.140189
 30
0.0
  0
SPLINE
  5
195
100
AcDbEntity
  8
Layer_1
 62
7
100
AcDbSpline
 70
8
 71
3
 72
8
 73
4
 74
0
 40
0
 40
0
 40
0
 40
0
 40
1
 40
1
 40
1
 40
1
 10
131.085805
 20
547.140189
 30
0.0
 10
129.723233
 20
548.781987
 30
0.0
 10
131.428885
 20
555.468180
 30
0.0
 10
134.029613
 20
558.679935
 30
0.0
  0
LWPOLYLINE
  5
196
100
AcDbEntity
  8
Layer_1
 62
7
100
AcDbPolyline
 90
2
 70
0
 10
198.139116
 20
531.321307
 30
0.0
 10
198.139113
 20
531.321449
 30
0.0
  0
SPLINE
  5
197
100
AcDbEntity
  8
Layer_1
 62
7
100
AcDbSpline
 70
8
 71
3
 72
8
 73
4
 74
0
 40
0
 40
0
 40
0
 40
0
 40
1
 40
1
 40
1
 40
1
 10
147.766564
 20
557.361099
 30
0.0
 10
154.298523
 20
555.371915
 30
0.0
 10
163.917853
 20
552.757181
 30
0.0
 10
169.142854
 20
551.550557
 30
0.0
  0
SPLINE
  5
198
100
AcDbEntity
  8
Layer_1
 62
7
100
AcDbSpline
 70
8
 71
3
 72
8
 73
4
 74
0
 40
0
 40
0
 40
0
 40
0
 40
1
 40
1
 40
1
 40
1
 10
169.142854
 20
551.550557
 30
0.0
 10
181.729463
 20
548.643855
 30
0.0
 10
183.952434
 20
546.060869
 30
0.0
 10
181.045023
 20
537.720661
 30
0.0
  0
SPLINE
  5
199
100
AcDbEntity
  8
Layer_1
 62
7
100
AcDbSpline
 70
8
 71
3
 72
8
 73
4
 74
0
 40
0
 40
0
 40
0
 40
0
 40
1
 40
1
 40
1
 40
1
 10
181.045023
 20
537.720661
 30
0.0
 10
179.842144
 20
534.270076
 30
0.0
 10
178.897323
 20
534.089254
 30
0.0
 10
169.951493
 20
535.597767
 30
0.0
  0
LWPOLYLINE
  5
19a
100
AcDbEntity
  8
Layer_1
 62
7
100
AcDbPolyline
 90
3
 70
0
 10
134.029613
 20
558.679935
 30
0.0
 10
135.890274
 20
560.977747
 30
0.0
 10
147.766564
 20
557.361099
 30
0.0
  0
LWPOLYLINE
  5
19b
100
AcDbEntity
  8
Layer_1
 62
7
100
AcDbPolyline
 90
1
 70
1
 10
169.951493
 20
535.597767
 30
0.0
  0
SPLINE
  5
19c
100
AcDbEntity
  8
Layer_1
 62
7
100
AcDbSpline
 70
8
 71
3
 72
8
 73
4
 74
0
 40
0
 40
0
 40
0
 40
0
 40
1
 40
1
 40
1
 40
1
 10
161.642854
 20
551.125162
 30
0.0
 10
152.292855
 20
553.467969
 30
0.0
 10
142.969805
 20
556.101808
 30
0.0
 10
140.924974
 20
556.978139
 30
0.0
  0
SPLINE
  5
19d
100
AcDbEntity
  8
Layer_1
 62
7
100
AcDbSpline
 70
8
 71
3
 72
8
 73
4
 74
0
 40
0
 40
0
 40
0
 40
0
 40
1
 40
1
 40
1
 40
1
 10
140.924974
 20
556.978139
 30
0.0
 10
138.880134
 20
557.854441
 30
0.0
 10
136.979195
 20
558.571445
 30
0.0
 10
136.700654
 20
558.571445
 30
0.0
  0
SPLINE
  5
19e
100
AcDbEntity
  8
Layer_1
 62
7
100
AcDbSpline
 70
8
 71
3
 72
8
 73
4
 74
0
 40
0
 40
0
 40
0
 40
0
 40
1
 40
1
 40
1
 40
1
 10
136.700654
 20
558.571445
 30
0.0
 10
135.778895
 20
558.571445
 30
0.0
 10
133.142854
 20
552.706951
 30
0.0
 10
133.142854
 20
550.656283
 30
0.0
  0
SPLINE
  5
19f
100
AcDbEntity
  8
Layer_1
 62
7
100
AcDbSpline
 70
8
 71
3
 72
8
 73
4
 74
0
 40
0
 40
0
 40
0
 40
0
 40
1
 40
1
 40
1
 40
1
 10
133.142854
 20
550.656283
 30
0.0
 10
133.142854
 20
548.057849
 30
0.0
 10
134.917294
 20
547.168961
 30
0.0
 10
145.191064
 20
544.620869
 30
0.0
  0
SPLINE
  5
1a0
100
AcDbEntity
  8
Layer_1
 62
7
100
AcDbSpline
 70
8
 71
3
 72
8
 73
4
 74
0
 40
0
 40
0
 40
0
 40
0
 40
1
 40
1
 40
1
 40
1
 10
145.191064
 20
544.620869
 30
0.0
 10
149.839543
 20
543.467962
 30
0.0
 10
154.767855
 20
542.034255
 30
0.0
 10
156.142854
 20
541.434813
 30
0.0
  0
SPLINE
  5
1a1
100
AcDbEntity
  8
Layer_1
 62
7
100
AcDbSpline
 70
8
 71
3
 72
8
 73
4
 74
0
 40
0
 40
0
 40
0
 40
0
 40
1
 40
1
 40
1
 40
1
 10
156.142854
 20
541.434813
 30
0.0
 10
159.236203
 20
540.086315
 30
0.0
 10
175.095884
 20
536.676917
 30
0.0
 10
177.142853
 20
536.920413
 30
0.0
  0
SPLINE
  5
1a2
100
AcDbEntity
  8
Layer_1
 62
7
100
AcDbSpline
 70
8
 71
3
 72
8
 73
4
 74
0
 40
0
 40
0
 40
0
 40
0
 40
1
 40
1
 40
1
 40
1
 10
177.142853
 20
536.920413
 30
0.0
 10
178.247055
 20
537.051657
 30
0.0
 10
178.642854
 20
538.387398
 30
0.0
 10
178.642854
 20
541.982154
 30
0.0
  0
LWPOLYLINE
  5
1a3
100
AcDbEntity
  8
Layer_1
 62
7
100
AcDbPolyline
 90
3
 70
0
 10
178.642854
 20
541.982154
 30
0.0
 10
178.642854
 20
546.865512
 30
0.0
 10
161.642854
 20
551.125162
 30
0.0
  0
SPLINE
  5
1a4
100
AcDbEntity
  8
Layer_1
 62
7
100
AcDbSpline
 70
8
 71
3
 72
8
 73
4
 74
0
 40
0
 40
0
 40
0
 40
0
 40
1
 40
1
 40
1
 40
1
 10
114.642853
 20
546.049332
 30
0.0
 10
112.442854
 20
546.869934
 30
0.0
 10
110.530355
 20
547.548094
 30
0.0
 10
110.392855
 20
547.556400
 30
0.0
  0
SPLINE
  5
1a5
100
AcDbEntity
  8
Layer_1
 62
7
100
AcDbSpline
 70
8
 71
3
 72
8
 73
4
 74
0
 40
0
 40
0
 40
0
 40
0
 40
1
 40
1
 40
1
 40
1
 10
110.392855
 20
547.556400
 30
0.0
 10
110.255346
 20
547.564904
 30
0.0
 10
110.152874
 20
548.358945
 30
0.0
 10
110.165091
 20
549.321449
 30
0.0
  0
SPLINE
  5
1a6
100
AcDbEntity
  8
Layer_1
 62
7
100
AcDbSpline
 70
8
 71
3
 72
8
 73
4
 74
0
 40
0
 40
0
 40
0
 40
0
 40
1
 40
1
 40
1
 40
1
 10
110.165091
 20
549.321449
 30
0.0
 10
110.219204
 20
553.582658
 30
0.0
 10
116.859620
 20
558.205625
 30
0.0
 10
123.717093
 20
558.756235
 30
0.0
  0
LWPOLYLINE
  5
1a7
100
AcDbEntity
  8
Layer_1
 62
7
100
AcDbPolyline
 90
1
 70
1
 10
178.642854
 20
541.982154
 30
0.0
  0
SPLINE
  5
1a8
100
AcDbEntity
  8
Layer_1
 62
7
100
AcDbSpline
 70
8
 71
3
 72
8
 73
4
 74
0
 40
0
 40
0
 40
0
 40
0
 40
1
 40
1
 40
1
 40
1
 10
127.390595
 20
552.652526
 30
0.0
 10
127.251867
 20
549.122117
 30
0.0
 10
126.951517
 20
546.046781
 30
0.0
 10
126.723186
 20
545.818450
 30
0.0
  0
SPLINE
  5
1a9
100
AcDbEntity
  8
Layer_1
 62
7
100
AcDbSpline
 70
8
 71
3
 72
8
 73
4
 74
0
 40
0
 40
0
 40
0
 40
0
 40
1
 40
1
 40
1
 40
1
 10
126.723186
 20
545.818450
 30
0.0
 10
125.513966
 20
544.609247
 30
0.0
 10
118.125065
 20
544.750469
 30
0.0
 10
114.642845
 20
546.049191
 30
0.0
  0
LWPOLYLINE
  5
1aa
100
AcDbEntity
  8
Layer_1
 62
7
100
AcDbPolyline
 90
3
 70
0
 10
123.717093
 20
558.756235
 30
0.0
 10
127.642850
 20
559.071445
 30
0.0
 10
127.390595
 20
552.652526
 30
0.0
  0
LWPOLYLINE
  5
1ab
100
AcDbEntity
  8
Layer_1
 62
7
100
AcDbPolyline
 90
2
 70
0
 10
114.642845
 20
546.049191
 30
0.0
 10
114.642853
 20
546.049332
 30
0.0
  0
SPLINE
  5
1ac
100
AcDbEntity
  8
Layer_1
 62
7
100
AcDbSpline
 70
8
 71
3
 72
8
 73
4
 74
0
 40
0
 40
0
 40
0
 40
0
 40
1
 40
1
 40
1
 40
1
 10
121.945124
 20
556.181887
 30
0.0
 10
115.830984
 20
554.959077
 30
0.0
 10
111.252674
 20
550.381918
 30
0.0
 10
114.247134
 20
548.485824
 30
0.0
  0
SPLINE
  5
1ad
100
AcDbEntity
  8
Layer_1
 62
7
100
AcDbSpline
 70
8
 71
3
 72
8
 73
4
 74
0
 40
0
 40
0
 40
0
 40
0
 40
1
 40
1
 40
1
 40
1
 10
114.247134
 20
548.485824
 30
0.0
 10
115.014784
 20
547.999767
 30
0.0
 10
117.780355
 20
547.595178
 30
0.0
 10
120.392855
 20
547.586759
 30
0.0
  0
LWPOLYLINE
  5
1ae
100
AcDbEntity
  8
Layer_1
 62
7
100
AcDbPolyline
 90
3
 70
0
 10
125.142854
 20
552.196460
 30
0.0
 10
125.142854
 20
556.821439
 30
0.0
 10
121.945124
 20
556.181887
 30
0.0
  0
SPLINE
  5
1af
100
AcDbEntity
  8
Layer_1
 62
7
100
AcDbSpline
 70
8
 71
3
 72
8
 73
4
 74
0
 40
0
 40
0
 40
0
 40
0
 40
1
 40
1
 40
1
 40
1
 10
279.638504
 20
550.575978
 30
0.0
 10
277.168414
 20
553.154202
 30
0.0
 10
276.896083
 20
553.967575
 30
0.0
 10
277.719225
 20
556.308170
 30
0.0
  0
SPLINE
  5
1b0
100
AcDbEntity
  8
Layer_1
 62
7
100
AcDbSpline
 70
8
 71
3
 72
8
 73
4
 74
0
 40
0
 40
0
 40
0
 40
0
 40
1
 40
1
 40
1
 40
1
 10
277.719225
 20
556.308170
 30
0.0
 10
278.743714
 20
559.221296
 30
0.0
 10
282.832404
 20
561.288285
 30
0.0
 10
285.525836
 20
560.254725
 30
0.0
  0
SPLINE
  5
1b1
100
AcDbEntity
  8
Layer_1
 62
7
100
AcDbSpline
 70
8
 71
3
 72
8
 73
4
 74
0
 40
0
 40
0
 40
0
 40
0
 40
1
 40
1
 40
1
 40
1
 10
285.525836
 20
560.254725
 30
0.0
 10
287.650998
 20
559.439215
 30
0.0
 10
287.689294
 20
552.796611
 30
0.0
 10
285.586214
 20
549.793956
 30
0.0
  0
SPLINE
  5
1b2
100
AcDbEntity
  8
Layer_1
 62
7
100
AcDbSpline
 70
8
 71
3
 72
8
 73
4
 74
0
 40
0
 40
0
 40
0
 40
0
 40
1
 40
1
 40
1
 40
1
 10
285.586214
 20
549.793956
 30
0.0
 10
283.571320
 20
546.917301
 30
0.0
 10
283.082182
 20
546.981619
 30
0.0
 10
279.638552
 20
550.575978
 30
0.0
  0
LWPOLYLINE
  5
1b3
100
AcDbEntity
  8
Layer_1
 62
7
100
AcDbPolyline
 90
3
 70
0
 10
120.392855
 20
547.586759
 30
0.0
 10
125.142854
 20
547.572586
 30
0.0
 10
125.142854
 20
552.196460
 30
0.0
  0
SPLINE
  5
1b4
100
AcDbEntity
  8
Layer_1
 62
7
100
AcDbSpline
 70
8
 71
3
 72
8
 73
4
 74
0
 40
0
 40
0
 40
0
 40
0
 40
1
 40
1
 40
1
 40
1
 10
284.535865
 20
552.153232
 30
0.0
 10
285.456501
 20
554.552362
 30
0.0
 10
285.261591
 20
558.571445
 30
0.0
 10
284.224649
 20
558.571445
 30
0.0
  0
SPLINE
  5
1b5
100
AcDbEntity
  8
Layer_1
 62
7
100
AcDbSpline
 70
8
 71
3
 72
8
 73
4
 74
0
 40
0
 40
0
 40
0
 40
0
 40
1
 40
1
 40
1
 40
1
 10
284.224649
 20
558.571445
 30
0.0
 10
280.454743
 20
558.571445
 30
0.0
 10
278.695074
 20
554.419219
 30
0.0
 10
281.342854
 20
551.771433
 30
0.0
  0
SPLINE
  5
1b6
100
AcDbEntity
  8
Layer_1
 62
7
100
AcDbSpline
 70
8
 71
3
 72
8
 73
4
 74
0
 40
0
 40
0
 40
0
 40
0
 40
1
 40
1
 40
1
 40
1
 10
281.342854
 20
551.771433
 30
0.0
 10
282.955745
 20
550.158548
 30
0.0
 10
283.809600
 20
550.260652
 30
0.0
 10
284.535865
 20
552.153232
 30
0.0
  0
LWPOLYLINE
  5
1b7
100
AcDbEntity
  8
Layer_1
 62
7
100
AcDbPolyline
 90
1
 70
1
 10
279.638552
 20
550.575978
 30
0.0
  0
SPLINE
  5
1b8
100
AcDbEntity
  8
Layer_1
 62
7
100
AcDbSpline
 70
8
 71
3
 72
8
 73
4
 74
0
 40
0
 40
0
 40
0
 40
0
 40
1
 40
1
 40
1
 40
1
 10
209.699555
 20
552.793946
 30
0.0
 10
206.193883
 20
557.798995
 30
0.0
 10
208.643134
 20
560.836925
 30
0.0
 10
215.815164
 20
560.379407
 30
0.0
  0
SPLINE
  5
1b9
100
AcDbEntity
  8
Layer_1
 62
7
100
AcDbSpline
 70
8
 71
3
 72
8
 73
4
 74
0
 40
0
 40
0
 40
0
 40
0
 40
1
 40
1
 40
1
 40
1
 10
215.815164
 20
560.379407
 30
0.0
 10
220.592665
 20
560.074646
 30
0.0
 10
220.646044
 20
560.033107
 30
0.0
 10
220.949484
 20
556.384082
 30
0.0
  0
SPLINE
  5
1ba
100
AcDbEntity
  8
Layer_1
 62
7
100
AcDbSpline
 70
8
 71
3
 72
8
 73
4
 74
0
 40
0
 40
0
 40
0
 40
0
 40
1
 40
1
 40
1
 40
1
 10
220.949484
 20
556.384082
 30
0.0
 10
221.240965
 20
552.878872
 30
0.0
 10
221.068057
 20
552.644504
 30
0.0
 10
217.449485
 20
551.639679
 30
0.0
  0
SPLINE
  5
1bb
100
AcDbEntity
  8
Layer_1
 62
7
100
AcDbSpline
 70
8
 71
3
 72
8
 73
4
 74
0
 40
0
 40
0
 40
0
 40
0
 40
1
 40
1
 40
1
 40
1
 10
217.449485
 20
551.639679
 30
0.0
 10
212.152465
 20
550.168724
 30
0.0
 10
211.466803
 20
550.270857
 30
0.0
 10
209.699555
 20
552.793946
 30
0.0
  0
LWPOLYLINE
  5
1bc
100
AcDbEntity
  8
Layer_1
 62
7
100
AcDbPolyline
 90
1
 70
1
 10
284.535865
 20
552.153232
 30
0.0
  0
SPLINE
  5
1bd
100
AcDbEntity
  8
Layer_1
 62
7
100
AcDbSpline
 70
8
 71
3
 72
8
 73
4
 74
0
 40
0
 40
0
 40
0
 40
0
 40
1
 40
1
 40
1
 40
1
 10
218.038575
 20
554.485833
 30
0.0
 10
220.519015
 20
556.056425
 30
0.0
 10
218.484343
 20
558.571445
 30
0.0
 10
214.733254
 20
558.571445
 30
0.0
  0
SPLINE
  5
1be
100
AcDbEntity
  8
Layer_1
 62
7
100
AcDbSpline
 70
8
 71
3
 72
8
 73
4
 74
0
 40
0
 40
0
 40
0
 40
0
 40
1
 40
1
 40
1
 40
1
 10
214.733254
 20
558.571445
 30
0.0
 10
210.798754
 20
558.571445
 30
0.0
 10
209.397603
 20
557.174324
 30
0.0
 10
211.179203
 20
555.027647
 30
0.0
  0
SPLINE
  5
1bf
100
AcDbEntity
  8
Layer_1
 62
7
100
AcDbSpline
 70
8
 71
3
 72
8
 73
4
 74
0
 40
0
 40
0
 40
0
 40
0
 40
1
 40
1
 40
1
 40
1
 10
211.179203
 20
555.027647
 30
0.0
 10
212.527125
 20
553.403509
 30
0.0
 10
215.907565
 20
553.136485
 30
0.0
 10
218.038575
 20
554.485833
 30
0.0
  0
LWPOLYLINE
  5
1c0
100
AcDbEntity
  8
Layer_1
 62
7
100
AcDbPolyline
 90
1
 70
1
 10
209.699555
 20
552.793946
 30
0.0
  0
SPLINE
  5
1c1
100
AcDbEntity
  8
Layer_1
 62
7
100
AcDbSpline
 70
8
 71
3
 72
8
 73
4
 74
0
 40
0
 40
0
 40
0
 40
0
 40
1
 40
1
 40
1
 40
1
 10
291.342841
 20
551.771433
 30
0.0
 10
289.450942
 20
553.663332
 30
0.0
 10
289.832230
 20
560.340825
 30
0.0
 10
291.892847
 20
561.403896
 30
0.0
  0
SPLINE
  5
1c2
100
AcDbEntity
  8
Layer_1
 62
7
100
AcDbSpline
 70
8
 71
3
 72
8
 73
4
 74
0
 40
0
 40
0
 40
0
 40
0
 40
1
 40
1
 40
1
 40
1
 10
291.892847
 20
561.403896
 30
0.0
 10
292.855351
 20
561.900447
 30
0.0
 10
299.042844
 20
562.597665
 30
0.0
 10
305.642863
 20
562.953277
 30
0.0
  0
SPLINE
  5
1c3
100
AcDbEntity
  8
Layer_1
 62
7
100
AcDbSpline
 70
8
 71
3
 72
8
 73
4
 74
0
 40
0
 40
0
 40
0
 40
0
 40
1
 40
1
 40
1
 40
1
 10
305.642863
 20
562.953277
 30
0.0
 10
312.242854
 20
563.308886
 30
0.0
 10
319.105361
 20
563.869525
 30
0.0
 10
320.892860
 20
564.199146
 30
0.0
  0
SPLINE
  5
1c4
100
AcDbEntity
  8
Layer_1
 62
7
100
AcDbSpline
 70
8
 71
3
 72
8
 73
4
 74
0
 40
0
 40
0
 40
0
 40
0
 40
1
 40
1
 40
1
 40
1
 10
320.892860
 20
564.199146
 30
0.0
 10
324.858954
 20
564.930496
 30
0.0
 10
325.221647
 20
563.053056
 30
0.0
 10
322.092454
 20
557.989880
 30
0.0
  0
SPLINE
  5
1c5
100
AcDbEntity
  8
Layer_1
 62
7
100
AcDbSpline
 70
8
 71
3
 72
8
 73
4
 74
0
 40
0
 40
0
 40
0
 40
0
 40
1
 40
1
 40
1
 40
1
 10
322.092454
 20
557.989880
 30
0.0
 10
318.369855
 20
551.966598
 30
0.0
 10
314.774476
 20
550.571443
 30
0.0
 10
302.974838
 20
550.571443
 30
0.0
  0
SPLINE
  5
1c6
100
AcDbEntity
  8
Layer_1
 62
7
100
AcDbSpline
 70
8
 71
3
 72
8
 73
4
 74
0
 40
0
 40
0
 40
0
 40
0
 40
1
 40
1
 40
1
 40
1
 10
302.974838
 20
550.571443
 30
0.0
 10
296.194394
 20
550.571443
 30
0.0
 10
292.122822
 20
550.991480
 30
0.0
 10
291.342841
 20
551.771433
 30
0.0
  0
LWPOLYLINE
  5
1c7
100
AcDbEntity
  8
Layer_1
 62
7
100
AcDbPolyline
 90
1
 70
1
 10
218.038575
 20
554.485833
 30
0.0
  0
SPLINE
  5
1c8
100
AcDbEntity
  8
Layer_1
 62
7
100
AcDbSpline
 70
8
 71
3
 72
8
 73
4
 74
0
 40
0
 40
0
 40
0
 40
0
 40
1
 40
1
 40
1
 40
1
 10
317.812762
 20
556.736117
 30
0.0
 10
319.644312
 20
558.511336
 30
0.0
 10
321.142847
 20
560.283086
 30
0.0
 10
321.142847
 20
560.673357
 30
0.0
  0
SPLINE
  5
1c9
100
AcDbEntity
  8
Layer_1
 62
7
100
AcDbSpline
 70
8
 71
3
 72
8
 73
4
 74
0
 40
0
 40
0
 40
0
 40
0
 40
1
 40
1
 40
1
 40
1
 10
321.142847
 20
560.673357
 30
0.0
 10
321.142847
 20
561.613187
 30
0.0
 10
297.280460
 20
560.526948
 30
0.0
 10
294.392863
 20
559.455676
 30
0.0
  0
SPLINE
  5
1ca
100
AcDbEntity
  8
Layer_1
 62
7
100
AcDbSpline
 70
8
 71
3
 72
8
 73
4
 74
0
 40
0
 40
0
 40
0
 40
0
 40
1
 40
1
 40
1
 40
1
 10
294.392863
 20
559.455676
 30
0.0
 10
291.915156
 20
558.536477
 30
0.0
 10
291.220214
 20
554.162967
 30
0.0
 10
293.392857
 20
553.162507
 30
0.0
  0
SPLINE
  5
1cb
100
AcDbEntity
  8
Layer_1
 62
7
100
AcDbSpline
 70
8
 71
3
 72
8
 73
4
 74
0
 40
0
 40
0
 40
0
 40
0
 40
1
 40
1
 40
1
 40
1
 10
293.392857
 20
553.162507
 30
0.0
 10
294.080343
 20
552.845934
 30
0.0
 10
299.106822
 20
552.794287
 30
0.0
 10
304.562778
 20
553.047704
 30
0.0
  0
SPLINE
  5
1cc
100
AcDbEntity
  8
Layer_1
 62
7
100
AcDbSpline
 70
8
 71
3
 72
8
 73
4
 74
0
 40
0
 40
0
 40
0
 40
0
 40
1
 40
1
 40
1
 40
1
 10
304.562778
 20
553.047704
 30
0.0
 10
314.114598
 20
553.491383
 30
0.0
 10
314.606239
 20
553.628239
 30
0.0
 10
317.812762
 20
556.736117
 30
0.0
  0
LWPOLYLINE
  5
1cd
100
AcDbEntity
  8
Layer_1
 62
7
100
AcDbPolyline
 90
1
 70
1
 10
291.342841
 20
551.771433
 30
0.0
  0
SPLINE
  5
1ce
100
AcDbEntity
  8
Layer_1
 62
7
100
AcDbSpline
 70
8
 71
3
 72
8
 73
4
 74
0
 40
0
 40
0
 40
0
 40
0
 40
1
 40
1
 40
1
 40
1
 10
226.663673
 20
560.959716
 30
0.0
 10
222.187654
 20
565.435735
 30
0.0
 10
222.596654
 20
573.383475
 30
0.0
 10
227.512993
 20
577.463675
 30
0.0
  0
SPLINE
  5
1cf
100
AcDbEntity
  8
Layer_1
 62
7
100
AcDbSpline
 70
8
 71
3
 72
8
 73
4
 74
0
 40
0
 40
0
 40
0
 40
0
 40
1
 40
1
 40
1
 40
1
 10
227.512993
 20
577.463675
 30
0.0
 10
229.675555
 20
579.258437
 30
0.0
 10
232.825544
 20
577.292661
 30
0.0
 10
233.625855
 20
573.648866
 30
0.0
  0
SPLINE
  5
1d0
100
AcDbEntity
  8
Layer_1
 62
7
100
AcDbSpline
 70
8
 71
3
 72
8
 73
4
 74
0
 40
0
 40
0
 40
0
 40
0
 40
1
 40
1
 40
1
 40
1
 10
233.625855
 20
573.648866
 30
0.0
 10
234.506934
 20
569.637326
 30
0.0
 10
235.739384
 20
568.834886
 30
0.0
 10
243.526623
 20
567.202535
 30
0.0
  0
SPLINE
  5
1d1
100
AcDbEntity
  8
Layer_1
 62
7
100
AcDbSpline
 70
8
 71
3
 72
8
 73
4
 74
0
 40
0
 40
0
 40
0
 40
0
 40
1
 40
1
 40
1
 40
1
 10
243.526623
 20
567.202535
 30
0.0
 10
251.200015
 20
565.594067
 30
0.0
 10
251.974015
 20
565.112667
 30
0.0
 10
250.540563
 20
562.840166
 30
0.0
  0
SPLINE
  5
1d2
100
AcDbEntity
  8
Layer_1
 62
7
100
AcDbSpline
 70
8
 71
3
 72
8
 73
4
 74
0
 40
0
 40
0
 40
0
 40
0
 40
1
 40
1
 40
1
 40
1
 10
250.540563
 20
562.840166
 30
0.0
 10
248.958604
 20
560.332236
 30
0.0
 10
243.348814
 20
558.731506
 30
0.0
 10
235.847404
 20
558.647527
 30
0.0
  0
SPLINE
  5
1d3
100
AcDbEntity
  8
Layer_1
 62
7
100
AcDbSpline
 70
8
 71
3
 72
8
 73
4
 74
0
 40
0
 40
0
 40
0
 40
0
 40
1
 40
1
 40
1
 40
1
 10
235.847404
 20
558.647527
 30
0.0
 10
229.960253
 20
558.581621
 30
0.0
 10
228.732715
 20
558.890683
 30
0.0
 10
226.663673
 20
560.959716
 30
0.0
  0
LWPOLYLINE
  5
1d4
100
AcDbEntity
  8
Layer_1
 62
7
100
AcDbPolyline
 90
1
 70
1
 10
317.812762
 20
556.736117
 30
0.0
  0
SPLINE
  5
1d5
100
AcDbEntity
  8
Layer_1
 62
7
100
AcDbSpline
 70
8
 71
3
 72
8
 73
4
 74
0
 40
0
 40
0
 40
0
 40
0
 40
1
 40
1
 40
1
 40
1
 10
243.392854
 20
561.624026
 30
0.0
 10
248.421903
 20
563.020665
 30
0.0
 10
248.118364
 20
564.198075
 30
0.0
 10
242.512534
 20
565.038717
 30
0.0
  0
SPLINE
  5
1d6
100
AcDbEntity
  8
Layer_1
 62
7
100
AcDbSpline
 70
8
 71
3
 72
8
 73
4
 74
0
 40
0
 40
0
 40
0
 40
0
 40
1
 40
1
 40
1
 40
1
 10
242.512534
 20
565.038717
 30
0.0
 10
235.377105
 20
566.108745
 30
0.0
 10
233.257793
 20
567.455777
 30
0.0
 10
231.975363
 20
571.736157
 30
0.0
  0
SPLINE
  5
1d7
100
AcDbEntity
  8
Layer_1
 62
7
100
AcDbSpline
 70
8
 71
3
 72
8
 73
4
 74
0
 40
0
 40
0
 40
0
 40
0
 40
1
 40
1
 40
1
 40
1
 10
231.975363
 20
571.736157
 30
0.0
 10
230.723254
 20
575.915326
 30
0.0
 10
228.804233
 20
576.675765
 30
0.0
 10
227.178034
 20
573.637187
 30
0.0
  0
SPLINE
  5
1d8
100
AcDbEntity
  8
Layer_1
 62
7
100
AcDbSpline
 70
8
 71
3
 72
8
 73
4
 74
0
 40
0
 40
0
 40
0
 40
0
 40
1
 40
1
 40
1
 40
1
 10
227.178034
 20
573.637187
 30
0.0
 10
224.815694
 20
569.223105
 30
0.0
 10
226.402345
 20
562.602257
 30
0.0
 10
230.142855
 20
561.265427
 30
0.0
  0
SPLINE
  5
1d9
100
AcDbEntity
  8
Layer_1
 62
7
100
AcDbSpline
 70
8
 71
3
 72
8
 73
4
 74
0
 40
0
 40
0
 40
0
 40
0
 40
1
 40
1
 40
1
 40
1
 10
230.142855
 20
561.265427
 30
0.0
 10
232.702843
 20
560.350505
 30
0.0
 10
239.466254
 20
560.533555
 30
0.0
 10
243.392854
 20
561.624026
 30
0.0
  0
LWPOLYLINE
  5
1da
100
AcDbEntity
  8
Layer_1
 62
7
100
AcDbPolyline
 90
1
 70
1
 10
226.663673
 20
560.959716
 30
0.0
  0
SPLINE
  5
1db
100
AcDbEntity
  8
Layer_1
 62
7
100
AcDbSpline
 70
8
 71
3
 72
8
 73
4
 74
0
 40
0
 40
0
 40
0
 40
0
 40
1
 40
1
 40
1
 40
1
 10
162.492554
 20
563.377317
 30
0.0
 10
157.460995
 20
565.431177
 30
0.0
 10
154.142855
 20
568.291337
 30
0.0
 10
154.142855
 20
570.574556
 30
0.0
  0
SPLINE
  5
1dc
100
AcDbEntity
  8
Layer_1
 62
7
100
AcDbSpline
 70
8
 71
3
 72
8
 73
4
 74
0
 40
0
 40
0
 40
0
 40
0
 40
1
 40
1
 40
1
 40
1
 10
154.142855
 20
570.574556
 30
0.0
 10
154.142855
 20
572.477695
 30
0.0
 10
159.282865
 20
575.037765
 30
0.0
 10
165.980103
 20
576.470316
 30
0.0
  0
SPLINE
  5
1dd
100
AcDbEntity
  8
Layer_1
 62
7
100
AcDbSpline
 70
8
 71
3
 72
8
 73
4
 74
0
 40
0
 40
0
 40
0
 40
0
 40
1
 40
1
 40
1
 40
1
 10
165.980103
 20
576.470316
 30
0.0
 10
170.314863
 20
577.397526
 30
0.0
 10
170.318214
 20
577.395995
 30
0.0
 10
171.818983
 20
573.804156
 30
0.0
  0
SPLINE
  5
1de
100
AcDbEntity
  8
Layer_1
 62
7
100
AcDbSpline
 70
8
 71
3
 72
8
 73
4
 74
0
 40
0
 40
0
 40
0
 40
0
 40
1
 40
1
 40
1
 40
1
 10
171.818983
 20
573.804156
 30
0.0
 10
174.112665
 20
568.314607
 30
0.0
 10
172.125295
 20
561.494985
 30
0.0
 10
168.270415
 20
561.627315
 30
0.0
  0
SPLINE
  5
1df
100
AcDbEntity
  8
Layer_1
 62
7
100
AcDbSpline
 70
8
 71
3
 72
8
 73
4
 74
0
 40
0
 40
0
 40
0
 40
0
 40
1
 40
1
 40
1
 40
1
 10
168.270415
 20
561.627315
 30
0.0
 10
167.375254
 20
561.658014
 30
0.0
 10
164.775223
 20
562.445546
 30
0.0
 10
162.492554
 20
563.377317
 30
0.0
  0
LWPOLYLINE
  5
1e0
100
AcDbEntity
  8
Layer_1
 62
7
100
AcDbPolyline
 90
1
 70
1
 10
243.392854
 20
561.624026
 30
0.0
  0
SPLINE
  5
1e1
100
AcDbEntity
  8
Layer_1
 62
7
100
AcDbSpline
 70
8
 71
3
 72
8
 73
4
 74
0
 40
0
 40
0
 40
0
 40
0
 40
1
 40
1
 40
1
 40
1
 10
169.952193
 20
570.338685
 30
0.0
 10
169.646723
 20
574.024725
 30
0.0
 10
169.593724
 20
574.067506
 30
0.0
 10
165.717094
 20
573.756236
 30
0.0
  0
SPLINE
  5
1e2
100
AcDbEntity
  8
Layer_1
 62
7
100
AcDbSpline
 70
8
 71
3
 72
8
 73
4
 74
0
 40
0
 40
0
 40
0
 40
0
 40
1
 40
1
 40
1
 40
1
 10
165.717094
 20
573.756236
 30
0.0
 10
161.114873
 20
573.386715
 30
0.0
 10
155.817785
 20
570.906425
 30
0.0
 10
156.673573
 20
569.521746
 30
0.0
  0
SPLINE
  5
1e3
100
AcDbEntity
  8
Layer_1
 62
7
100
AcDbSpline
 70
8
 71
3
 72
8
 73
4
 74
0
 40
0
 40
0
 40
0
 40
0
 40
1
 40
1
 40
1
 40
1
 10
156.673573
 20
569.521746
 30
0.0
 10
157.420664
 20
568.312926
 30
0.0
 10
162.816565
 20
565.492816
 30
0.0
 10
166.136383
 20
564.576106
 30
0.0
  0
SPLINE
  5
1e4
100
AcDbEntity
  8
Layer_1
 62
7
100
AcDbSpline
 70
8
 71
3
 72
8
 73
4
 74
0
 40
0
 40
0
 40
0
 40
0
 40
1
 40
1
 40
1
 40
1
 10
166.136383
 20
564.576106
 30
0.0
 10
169.287854
 20
563.705887
 30
0.0
 10
170.366825
 20
565.335337
 30
0.0
 10
169.952193
 20
570.338685
 30
0.0
  0
LWPOLYLINE
  5
1e5
100
AcDbEntity
  8
Layer_1
 62
7
100
AcDbPolyline
 90
1
 70
1
 10
162.492554
 20
563.377317
 30
0.0
  0
SPLINE
  5
1e6
100
AcDbEntity
  8
Layer_1
 62
7
100
AcDbSpline
 70
8
 71
3
 72
8
 73
4
 74
0
 40
0
 40
0
 40
0
 40
0
 40
1
 40
1
 40
1
 40
1
 10
445.304778
 20
567.190106
 30
0.0
 10
442.246904
 20
569.022636
 30
0.0
 10
441.126539
 20
570.274067
 30
0.0
 10
441.508280
 20
571.430645
 30
0.0
  0
SPLINE
  5
1e7
100
AcDbEntity
  8
Layer_1
 62
7
100
AcDbSpline
 70
8
 71
3
 72
8
 73
4
 74
0
 40
0
 40
0
 40
0
 40
0
 40
1
 40
1
 40
1
 40
1
 10
441.508280
 20
571.430645
 30
0.0
 10
441.806145
 20
572.333085
 30
0.0
 10
442.995902
 20
575.717397
 30
0.0
 10
444.152211
 20
578.951325
 30
0.0
  0
SPLINE
  5
1e8
100
AcDbEntity
  8
Layer_1
 62
7
100
AcDbSpline
 70
8
 71
3
 72
8
 73
4
 74
0
 40
0
 40
0
 40
0
 40
0
 40
1
 40
1
 40
1
 40
1
 10
444.152211
 20
578.951325
 30
0.0
 10
445.618885
 20
583.053406
 30
0.0
 10
446.435008
 20
588.420187
 30
0.0
 10
446.851361
 20
596.701327
 30
0.0
  0
SPLINE
  5
1e9
100
AcDbEntity
  8
Layer_1
 62
7
100
AcDbSpline
 70
8
 71
3
 72
8
 73
4
 74
0
 40
0
 40
0
 40
0
 40
0
 40
1
 40
1
 40
1
 40
1
 10
446.851361
 20
596.701327
 30
0.0
 10
447.179613
 20
603.229895
 30
0.0
 10
447.805644
 20
608.571445
 30
0.0
 10
448.242576
 20
608.571445
 30
0.0
  0
SPLINE
  5
1ea
100
AcDbEntity
  8
Layer_1
 62
7
100
AcDbSpline
 70
8
 71
3
 72
8
 73
4
 74
0
 40
0
 40
0
 40
0
 40
0
 40
1
 40
1
 40
1
 40
1
 10
448.242576
 20
608.571445
 30
0.0
 10
449.435906
 20
608.571445
 30
0.0
 10
462.379946
 20
598.695035
 30
0.0
 10
464.424633
 20
596.224406
 30
0.0
  0
SPLINE
  5
1eb
100
AcDbEntity
  8
Layer_1
 62
7
100
AcDbSpline
 70
8
 71
3
 72
8
 73
4
 74
0
 40
0
 40
0
 40
0
 40
0
 40
1
 40
1
 40
1
 40
1
 10
464.424633
 20
596.224406
 30
0.0
 10
468.895861
 20
590.821747
 30
0.0
 10
469.320775
 20
588.996065
 30
0.0
 10
467.544813
 20
582.818655
 30
0.0
  0
SPLINE
  5
1ec
100
AcDbEntity
  8
Layer_1
 62
7
100
AcDbSpline
 70
8
 71
3
 72
8
 73
4
 74
0
 40
0
 40
0
 40
0
 40
0
 40
1
 40
1
 40
1
 40
1
 10
467.544813
 20
582.818655
 30
0.0
 10
465.371065
 20
575.257717
 30
0.0
 10
463.573502
 20
571.761176
 30
0.0
 10
459.834746
 20
567.821446
 30
0.0
  0
SPLINE
  5
1ed
100
AcDbEntity
  8
Layer_1
 62
7
100
AcDbSpline
 70
8
 71
3
 72
8
 73
4
 74
0
 40
0
 40
0
 40
0
 40
0
 40
1
 40
1
 40
1
 40
1
 10
459.834746
 20
567.821446
 30
0.0
 10
455.929965
 20
563.706765
 30
0.0
 10
451.442636
 20
563.511787
 30
0.0
 10
445.304778
 20
567.190106
 30
0.0
  0
LWPOLYLINE
  5
1ee
100
AcDbEntity
  8
Layer_1
 62
7
100
AcDbPolyline
 90
1
 70
1
 10
169.952193
 20
570.338685
 30
0.0
  0
SPLINE
  5
1ef
100
AcDbEntity
  8
Layer_1
 62
7
100
AcDbSpline
 70
8
 71
3
 72
8
 73
4
 74
0
 40
0
 40
0
 40
0
 40
0
 40
1
 40
1
 40
1
 40
1
 10
458.541468
 20
569.465617
 30
0.0
 10
461.481704
 20
572.534575
 30
0.0
 10
466.142854
 20
583.985197
 30
0.0
 10
466.142854
 20
588.139277
 30
0.0
  0
SPLINE
  5
1f0
100
AcDbEntity
  8
Layer_1
 62
7
100
AcDbSpline
 70
8
 71
3
 72
8
 73
4
 74
0
 40
0
 40
0
 40
0
 40
0
 40
1
 40
1
 40
1
 40
1
 10
466.142854
 20
588.139277
 30
0.0
 10
466.142854
 20
591.018055
 30
0.0
 10
460.468630
 20
597.562166
 30
0.0
 10
453.853134
 20
602.313055
 30
0.0
  0
LWPOLYLINE
  5
1f1
100
AcDbEntity
  8
Layer_1
 62
7
100
AcDbPolyline
 90
1
 70
1
 10
445.304778
 20
567.190106
 30
0.0
  0
SPLINE
  5
1f2
100
AcDbEntity
  8
Layer_1
 62
7
100
AcDbSpline
 70
8
 71
3
 72
8
 73
4
 74
0
 40
0
 40
0
 40
0
 40
0
 40
1
 40
1
 40
1
 40
1
 10
448.908746
 20
594.293967
 30
0.0
 10
448.548803
 20
585.942917
 30
0.0
 10
447.849921
 20
581.576346
 30
0.0
 10
446.177225
 20
577.228187
 30
0.0
  0
SPLINE
  5
1f3
100
AcDbEntity
  8
Layer_1
 62
7
100
AcDbSpline
 70
8
 71
3
 72
8
 73
4
 74
0
 40
0
 40
0
 40
0
 40
0
 40
1
 40
1
 40
1
 40
1
 10
446.177225
 20
577.228187
 30
0.0
 10
443.795272
 20
571.036346
 30
0.0
 10
443.915717
 20
570.592395
 30
0.0
 10
448.642857
 20
568.140086
 30
0.0
  0
SPLINE
  5
1f4
100
AcDbEntity
  8
Layer_1
 62
7
100
AcDbSpline
 70
8
 71
3
 72
8
 73
4
 74
0
 40
0
 40
0
 40
0
 40
0
 40
1
 40
1
 40
1
 40
1
 10
448.642857
 20
568.140086
 30
0.0
 10
453.001408
 20
565.878997
 30
0.0
 10
455.414910
 20
566.202186
 30
0.0
 10
458.541468
 20
569.465617
 30
0.0
  0
LWPOLYLINE
  5
1f5
100
AcDbEntity
  8
Layer_1
 62
7
100
AcDbPolyline
 90
3
 70
0
 10
453.853134
 20
602.313055
 30
0.0
 10
449.392422
 20
605.516496
 30
0.0
 10
448.908746
 20
594.293967
 30
0.0
  0
SPLINE
  5
1f6
100
AcDbEntity
  8
Layer_1
 62
7
100
AcDbSpline
 70
8
 71
3
 72
8
 73
4
 74
0
 40
0
 40
0
 40
0
 40
0
 40
1
 40
1
 40
1
 40
1
 10
284.345518
 20
566.371256
 30
0.0
 10
283.300784
 20
567.077287
 30
0.0
 10
283.337864
 20
567.488395
 30
0.0
 10
284.536006
 20
568.482735
 30
0.0
  0
SPLINE
  5
1f7
100
AcDbEntity
  8
Layer_1
 62
7
100
AcDbSpline
 70
8
 71
3
 72
8
 73
4
 74
0
 40
0
 40
0
 40
0
 40
0
 40
1
 40
1
 40
1
 40
1
 10
284.536006
 20
568.482735
 30
0.0
 10
285.987402
 20
569.687295
 30
0.0
 10
290.336400
 20
570.417426
 30
0.0
 10
308.551720
 20
572.514627
 30
0.0
  0
SPLINE
  5
1f8
100
AcDbEntity
  8
Layer_1
 62
7
100
AcDbSpline
 70
8
 71
3
 72
8
 73
4
 74
0
 40
0
 40
0
 40
0
 40
0
 40
1
 40
1
 40
1
 40
1
 10
308.551720
 20
572.514627
 30
0.0
 10
316.560699
 20
573.436726
 30
0.0
 10
318.429354
 20
574.085616
 30
0.0
 10
327.051723
 20
578.938725
 30
0.0
  0
SPLINE
  5
1f9
100
AcDbEntity
  8
Layer_1
 62
7
100
AcDbSpline
 70
8
 71
3
 72
8
 73
4
 74
0
 40
0
 40
0
 40
0
 40
0
 40
1
 40
1
 40
1
 40
1
 10
327.051723
 20
578.938725
 30
0.0
 10
344.219726
 20
588.601755
 30
0.0
 10
347.142869
 20
589.823206
 30
0.0
 10
347.142869
 20
587.333957
 30
0.0
  0
SPLINE
  5
1fa
100
AcDbEntity
  8
Layer_1
 62
7
100
AcDbSpline
 70
8
 71
3
 72
8
 73
4
 74
0
 40
0
 40
0
 40
0
 40
0
 40
1
 40
1
 40
1
 40
1
 10
347.142869
 20
587.333957
 30
0.0
 10
347.142869
 20
585.063215
 30
0.0
 10
333.665858
 20
573.117435
 30
0.0
 10
327.111789
 20
569.578757
 30
0.0
  0
LWPOLYLINE
  5
1fb
100
AcDbEntity
  8
Layer_1
 62
7
100
AcDbPolyline
 90
1
 70
1
 10
458.541468
 20
569.465617
 30
0.0
  0
SPLINE
  5
1fc
100
AcDbEntity
  8
Layer_1
 62
7
100
AcDbSpline
 70
8
 71
3
 72
8
 73
4
 74
0
 40
0
 40
0
 40
0
 40
0
 40
1
 40
1
 40
1
 40
1
 10
303.142876
 20
565.790295
 30
0.0
 10
293.517893
 20
565.627615
 30
0.0
 10
285.059083
 20
565.889111
 30
0.0
 10
284.345546
 20
566.371256
 30
0.0
  0
LWPOLYLINE
  5
1fd
100
AcDbEntity
  8
Layer_1
 62
7
100
AcDbPolyline
 90
3
 70
0
 10
327.111789
 20
569.578757
 30
0.0
 10
320.642872
 20
566.086076
 30
0.0
 10
303.142876
 20
565.790295
 30
0.0
  0
SPLINE
  5
1fe
100
AcDbEntity
  8
Layer_1
 62
7
100
AcDbSpline
 70
8
 71
3
 72
8
 73
4
 74
0
 40
0
 40
0
 40
0
 40
0
 40
1
 40
1
 40
1
 40
1
 10
324.235928
 20
570.612767
 30
0.0
 10
329.062450
 20
573.068336
 30
0.0
 10
338.884668
 20
580.334496
 30
0.0
 10
341.188243
 20
583.153566
 30
0.0
  0
SPLINE
  5
1ff
100
AcDbEntity
  8
Layer_1
 62
7
100
AcDbSpline
 70
8
 71
3
 72
8
 73
4
 74
0
 40
0
 40
0
 40
0
 40
0
 40
1
 40
1
 40
1
 40
1
 10
341.188243
 20
583.153566
 30
0.0
 10
341.988293
 20
584.132627
 30
0.0
 10
338.817855
 20
582.796797
 30
0.0
 10
334.142844
 20
580.185065
 30
0.0
  0
SPLINE
  5
200
100
AcDbEntity
  8
Layer_1
 62
7
100
AcDbSpline
 70
8
 71
3
 72
8
 73
4
 74
0
 40
0
 40
0
 40
0
 40
0
 40
1
 40
1
 40
1
 40
1
 10
334.142844
 20
580.185065
 30
0.0
 10
318.758173
 20
571.590286
 30
0.0
 10
316.523877
 20
570.800565
 30
0.0
 10
304.176728
 20
569.593485
 30
0.0
  0
SPLINE
  5
201
100
AcDbEntity
  8
Layer_1
 62
7
100
AcDbSpline
 70
8
 71
3
 72
8
 73
4
 74
0
 40
0
 40
0
 40
0
 40
0
 40
1
 40
1
 40
1
 40
1
 10
304.176728
 20
569.593485
 30
0.0
 10
297.870378
 20
568.976967
 30
0.0
 10
292.470378
 20
568.209815
 30
0.0
 10
292.176737
 20
567.888715
 30
0.0
  0
SPLINE
  5
202
100
AcDbEntity
  8
Layer_1
 62
7
100
AcDbSpline
 70
8
 71
3
 72
8
 73
4
 74
0
 40
0
 40
0
 40
0
 40
0
 40
1
 40
1
 40
1
 40
1
 10
292.176737
 20
567.888715
 30
0.0
 10
291.883096
 20
567.567607
 30
0.0
 10
297.984728
 20
567.544686
 30
0.0
 10
305.735924
 20
567.837805
 30
0.0
  0
SPLINE
  5
203
100
AcDbEntity
  8
Layer_1
 62
7
100
AcDbSpline
 70
8
 71
3
 72
8
 73
4
 74
0
 40
0
 40
0
 40
0
 40
0
 40
1
 40
1
 40
1
 40
1
 10
305.735924
 20
567.837805
 30
0.0
 10
317.692828
 20
568.289925
 30
0.0
 10
320.496945
 20
568.710544
 30
0.0
 10
324.235928
 20
570.612796
 30
0.0
  0
LWPOLYLINE
  5
204
100
AcDbEntity
  8
Layer_1
 62
7
100
AcDbPolyline
 90
1
 70
1
 10
284.345546
 20
566.371256
 30
0.0
  0
SPLINE
  5
205
100
AcDbEntity
  8
Layer_1
 62
7
100
AcDbSpline
 70
8
 71
3
 72
8
 73
4
 74
0
 40
0
 40
0
 40
0
 40
0
 40
1
 40
1
 40
1
 40
1
 10
249.642853
 20
569.242477
 30
0.0
 10
246.014045
 20
570.263066
 30
0.0
 10
241.938405
 20
573.816506
 30
0.0
 10
240.529714
 20
577.187986
 30
0.0
  0
SPLINE
  5
206
100
AcDbEntity
  8
Layer_1
 62
7
100
AcDbSpline
 70
8
 71
3
 72
8
 73
4
 74
0
 40
0
 40
0
 40
0
 40
0
 40
1
 40
1
 40
1
 40
1
 10
240.529714
 20
577.187986
 30
0.0
 10
239.766945
 20
579.013557
 30
0.0
 10
239.142855
 20
583.181657
 30
0.0
 10
239.142855
 20
586.450437
 30
0.0
  0
SPLINE
  5
207
100
AcDbEntity
  8
Layer_1
 62
7
100
AcDbSpline
 70
8
 71
3
 72
8
 73
4
 74
0
 40
0
 40
0
 40
0
 40
0
 40
1
 40
1
 40
1
 40
1
 10
239.142855
 20
586.450437
 30
0.0
 10
239.142855
 20
591.845936
 30
0.0
 10
239.423485
 20
592.629795
 30
0.0
 10
242.187925
 20
594.955916
 30
0.0
  0
SPLINE
  5
208
100
AcDbEntity
  8
Layer_1
 62
7
100
AcDbSpline
 70
8
 71
3
 72
8
 73
4
 74
0
 40
0
 40
0
 40
0
 40
0
 40
1
 40
1
 40
1
 40
1
 10
242.187925
 20
594.955916
 30
0.0
 10
246.611673
 20
598.678257
 30
0.0
 10
251.639963
 20
599.829497
 30
0.0
 10
261.718373
 20
599.427456
 30
0.0
  0
SPLINE
  5
209
100
AcDbEntity
  8
Layer_1
 62
7
100
AcDbSpline
 70
8
 71
3
 72
8
 73
4
 74
0
 40
0
 40
0
 40
0
 40
0
 40
1
 40
1
 40
1
 40
1
 10
261.718373
 20
599.427456
 30
0.0
 10
269.199663
 20
599.129016
 30
0.0
 10
271.188805
 20
598.682066
 30
0.0
 10
274.018915
 20
596.663595
 30
0.0
  0
SPLINE
  5
20a
100
AcDbEntity
  8
Layer_1
 62
7
100
AcDbSpline
 70
8
 71
3
 72
8
 73
4
 74
0
 40
0
 40
0
 40
0
 40
0
 40
1
 40
1
 40
1
 40
1
 10
274.018915
 20
596.663595
 30
0.0
 10
280.420923
 20
592.097576
 30
0.0
 10
283.317094
 20
580.964726
 30
0.0
 10
279.451945
 20
575.779085
 30
0.0
  0
SPLINE
  5
20b
100
AcDbEntity
  8
Layer_1
 62
7
100
AcDbSpline
 70
8
 71
3
 72
8
 73
4
 74
0
 40
0
 40
0
 40
0
 40
0
 40
1
 40
1
 40
1
 40
1
 10
279.451945
 20
575.779085
 30
0.0
 10
275.697354
 20
570.741766
 30
0.0
 10
271.804955
 20
569.282817
 30
0.0
 10
261.280684
 20
568.968157
 30
0.0
  0
SPLINE
  5
20c
100
AcDbEntity
  8
Layer_1
 62
7
100
AcDbSpline
 70
8
 71
3
 72
8
 73
4
 74
0
 40
0
 40
0
 40
0
 40
0
 40
1
 40
1
 40
1
 40
1
 10
261.280684
 20
568.968157
 30
0.0
 10
255.979874
 20
568.809672
 30
0.0
 10
250.742854
 20
568.933064
 30
0.0
 10
249.642853
 20
569.242466
 30
0.0
  0
LWPOLYLINE
  5
20d
100
AcDbEntity
  8
Layer_1
 62
7
100
AcDbPolyline
 90
1
 70
1
 10
324.235928
 20
570.612796
 30
0.0
  0
SPLINE
  5
20e
100
AcDbEntity
  8
Layer_1
 62
7
100
AcDbSpline
 70
8
 71
3
 72
8
 73
4
 74
0
 40
0
 40
0
 40
0
 40
0
 40
1
 40
1
 40
1
 40
1
 10
268.297044
 20
571.697935
 30
0.0
 10
278.278843
 20
573.838645
 30
0.0
 10
281.385944
 20
580.032505
 30
0.0
 10
277.154663
 20
589.355215
 30
0.0
  0
SPLINE
  5
20f
100
AcDbEntity
  8
Layer_1
 62
7
100
AcDbSpline
 70
8
 71
3
 72
8
 73
4
 74
0
 40
0
 40
0
 40
0
 40
0
 40
1
 40
1
 40
1
 40
1
 10
277.154663
 20
589.355215
 30
0.0
 10
274.611764
 20
594.957957
 30
0.0
 10
269.287404
 20
597.520857
 30
0.0
 10
260.142854
 20
597.543905
 30
0.0
  0
SPLINE
  5
210
100
AcDbEntity
  8
Layer_1
 62
7
100
AcDbSpline
 70
8
 71
3
 72
8
 73
4
 74
0
 40
0
 40
0
 40
0
 40
0
 40
1
 40
1
 40
1
 40
1
 10
260.142854
 20
597.543905
 30
0.0
 10
246.983054
 20
597.577099
 30
0.0
 10
241.142854
 20
594.034265
 30
0.0
 10
241.142854
 20
586.018026
 30
0.0
  0
SPLINE
  5
211
100
AcDbEntity
  8
Layer_1
 62
7
100
AcDbSpline
 70
8
 71
3
 72
8
 73
4
 74
0
 40
0
 40
0
 40
0
 40
0
 40
1
 40
1
 40
1
 40
1
 10
241.142854
 20
586.018026
 30
0.0
 10
241.142854
 20
580.580325
 30
0.0
 10
243.521215
 20
574.981237
 30
0.0
 10
246.523204
 20
573.351715
 30
0.0
  0
SPLINE
  5
212
100
AcDbEntity
  8
Layer_1
 62
7
100
AcDbSpline
 70
8
 71
3
 72
8
 73
4
 74
0
 40
0
 40
0
 40
0
 40
0
 40
1
 40
1
 40
1
 40
1
 10
246.523204
 20
573.351715
 30
0.0
 10
251.421225
 20
570.693005
 30
0.0
 10
260.423144
 20
570.009285
 30
0.0
 10
268.297044
 20
571.697935
 30
0.0
  0
LWPOLYLINE
  5
213
100
AcDbEntity
  8
Layer_1
 62
7
100
AcDbPolyline
 90
1
 70
1
 10
249.642853
 20
569.242466
 30
0.0
  0
SPLINE
  5
214
100
AcDbEntity
  8
Layer_1
 62
7
100
AcDbSpline
 70
8
 71
3
 72
8
 73
4
 74
0
 40
0
 40
0
 40
0
 40
0
 40
1
 40
1
 40
1
 40
1
 10
249.642853
 20
578.046195
 30
0.0
 10
247.442854
 20
578.868517
 30
0.0
 10
245.530355
 20
579.548106
 30
0.0
 10
245.392855
 20
579.556386
 30
0.0
  0
SPLINE
  5
215
100
AcDbEntity
  8
Layer_1
 62
7
100
AcDbSpline
 70
8
 71
3
 72
8
 73
4
 74
0
 40
0
 40
0
 40
0
 40
0
 40
1
 40
1
 40
1
 40
1
 10
245.392855
 20
579.556386
 30
0.0
 10
245.255346
 20
579.564323
 30
0.0
 10
245.142867
 20
581.518006
 30
0.0
 10
245.142867
 20
583.897136
 30
0.0
  0
SPLINE
  5
216
100
AcDbEntity
  8
Layer_1
 62
7
100
AcDbSpline
 70
8
 71
3
 72
8
 73
4
 74
0
 40
0
 40
0
 40
0
 40
0
 40
1
 40
1
 40
1
 40
1
 10
245.142867
 20
583.897136
 30
0.0
 10
245.142867
 20
588.945095
 30
0.0
 10
247.719518
 20
591.942336
 30
0.0
 10
252.892868
 20
592.912176
 30
0.0
  0
SPLINE
  5
217
100
AcDbEntity
  8
Layer_1
 62
7
100
AcDbSpline
 70
8
 71
3
 72
8
 73
4
 74
0
 40
0
 40
0
 40
0
 40
0
 40
1
 40
1
 40
1
 40
1
 10
252.892868
 20
592.912176
 30
0.0
 10
263.207197
 20
594.845787
 30
0.0
 10
272.650059
 20
584.960366
 30
0.0
 10
266.127369
 20
579.057426
 30
0.0
  0
SPLINE
  5
218
100
AcDbEntity
  8
Layer_1
 62
7
100
AcDbSpline
 70
8
 71
3
 72
8
 73
4
 74
0
 40
0
 40
0
 40
0
 40
0
 40
1
 40
1
 40
1
 40
1
 10
266.127369
 20
579.057426
 30
0.0
 10
263.443289
 20
576.628367
 30
0.0
 10
254.846849
 20
576.101027
 30
0.0
 10
249.642867
 20
578.046195
 30
0.0
  0
LWPOLYLINE
  5
219
100
AcDbEntity
  8
Layer_1
 62
7
100
AcDbPolyline
 90
1
 70
1
 10
268.297044
 20
571.697935
 30
0.0
  0
SPLINE
  5
21a
100
AcDbEntity
  8
Layer_1
 62
7
100
AcDbSpline
 70
8
 71
3
 72
8
 73
4
 74
0
 40
0
 40
0
 40
0
 40
0
 40
1
 40
1
 40
1
 40
1
 10
264.892853
 20
581.353537
 30
0.0
 10
266.799523
 20
583.794326
 30
0.0
 10
266.423995
 20
585.157096
 30
0.0
 10
263.066125
 20
587.982555
 30
0.0
  0
SPLINE
  5
21b
100
AcDbEntity
  8
Layer_1
 62
7
100
AcDbSpline
 70
8
 71
3
 72
8
 73
4
 74
0
 40
0
 40
0
 40
0
 40
0
 40
1
 40
1
 40
1
 40
1
 10
263.066125
 20
587.982555
 30
0.0
 10
259.353853
 20
591.106226
 30
0.0
 10
251.934483
 20
591.597836
 30
0.0
 10
248.971595
 20
588.916457
 30
0.0
  0
SPLINE
  5
21c
100
AcDbEntity
  8
Layer_1
 62
7
100
AcDbSpline
 70
8
 71
3
 72
8
 73
4
 74
0
 40
0
 40
0
 40
0
 40
0
 40
1
 40
1
 40
1
 40
1
 10
248.971595
 20
588.916457
 30
0.0
 10
246.929893
 20
587.068747
 30
0.0
 10
246.511675
 20
582.079567
 30
0.0
 10
248.305564
 20
580.970886
 30
0.0
  0
SPLINE
  5
21d
100
AcDbEntity
  8
Layer_1
 62
7
100
AcDbSpline
 70
8
 71
3
 72
8
 73
4
 74
0
 40
0
 40
0
 40
0
 40
0
 40
1
 40
1
 40
1
 40
1
 10
248.305564
 20
580.970886
 30
0.0
 10
252.564214
 20
578.338897
 30
0.0
 10
262.720945
 20
578.573206
 30
0.0
 10
264.892853
 20
581.353537
 30
0.0
  0
LWPOLYLINE
  5
21e
100
AcDbEntity
  8
Layer_1
 62
7
100
AcDbPolyline
 90
1
 70
1
 10
249.642867
 20
578.046195
 30
0.0
  0
SPLINE
  5
21f
100
AcDbEntity
  8
Layer_1
 62
7
100
AcDbSpline
 70
8
 71
3
 72
8
 73
4
 74
0
 40
0
 40
0
 40
0
 40
0
 40
1
 40
1
 40
1
 40
1
 10
421.142854
 20
573.261687
 30
0.0
 10
419.005786
 20
574.194115
 30
0.0
 10
412.121254
 20
575.135447
 30
0.0
 10
403.463424
 20
575.679025
 30
0.0
  0
SPLINE
  5
220
100
AcDbEntity
  8
Layer_1
 62
7
100
AcDbSpline
 70
8
 71
3
 72
8
 73
4
 74
0
 40
0
 40
0
 40
0
 40
0
 40
1
 40
1
 40
1
 40
1
 10
403.463424
 20
575.679025
 30
0.0
 10
381.802054
 20
577.039005
 30
0.0
 10
371.248328
 20
579.727386
 30
0.0
 10
367.703546
 20
584.788235
 30
0.0
  0
SPLINE
  5
221
100
AcDbEntity
  8
Layer_1
 62
7
100
AcDbSpline
 70
8
 71
3
 72
8
 73
4
 74
0
 40
0
 40
0
 40
0
 40
0
 40
1
 40
1
 40
1
 40
1
 10
367.703546
 20
584.788235
 30
0.0
 10
365.697609
 20
587.652126
 30
0.0
 10
365.677257
 20
596.000316
 30
0.0
 10
367.662444
 20
601.627045
 30
0.0
  0
SPLINE
  5
222
100
AcDbEntity
  8
Layer_1
 62
7
100
AcDbSpline
 70
8
 71
3
 72
8
 73
4
 74
0
 40
0
 40
0
 40
0
 40
0
 40
1
 40
1
 40
1
 40
1
 10
367.662444
 20
601.627045
 30
0.0
 10
369.974580
 20
608.180346
 30
0.0
 10
373.535830
 20
612.134107
 30
0.0
 10
380.770639
 20
616.180045
 30
0.0
  0
LWPOLYLINE
  5
223
100
AcDbEntity
  8
Layer_1
 62
7
100
AcDbPolyline
 90
1
 70
1
 10
264.892853
 20
581.353537
 30
0.0
  0
SPLINE
  5
224
100
AcDbEntity
  8
Layer_1
 62
7
100
AcDbSpline
 70
8
 71
3
 72
8
 73
4
 74
0
 40
0
 40
0
 40
0
 40
0
 40
1
 40
1
 40
1
 40
1
 10
397.997008
 20
619.276975
 30
0.0
 10
420.780643
 20
618.029045
 30
0.0
 10
436.072195
 20
612.338346
 30
0.0
 10
440.737852
 20
603.371106
 30
0.0
  0
SPLINE
  5
225
100
AcDbEntity
  8
Layer_1
 62
7
100
AcDbSpline
 70
8
 71
3
 72
8
 73
4
 74
0
 40
0
 40
0
 40
0
 40
0
 40
1
 40
1
 40
1
 40
1
 10
440.737852
 20
603.371106
 30
0.0
 10
442.613594
 20
599.765967
 30
0.0
 10
442.548737
 20
587.301225
 30
0.0
 10
440.620498
 20
580.807885
 30
0.0
  0
SPLINE
  5
226
100
AcDbEntity
  8
Layer_1
 62
7
100
AcDbSpline
 70
8
 71
3
 72
8
 73
4
 74
0
 40
0
 40
0
 40
0
 40
0
 40
1
 40
1
 40
1
 40
1
 10
440.620498
 20
580.807885
 30
0.0
 10
438.641972
 20
574.145436
 30
0.0
 10
435.413509
 20
571.544215
 30
0.0
 10
429.258047
 20
571.653017
 30
0.0
  0
SPLINE
  5
227
100
AcDbEntity
  8
Layer_1
 62
7
100
AcDbSpline
 70
8
 71
3
 72
8
 73
4
 74
0
 40
0
 40
0
 40
0
 40
0
 40
1
 40
1
 40
1
 40
1
 10
429.258047
 20
571.653017
 30
0.0
 10
426.719735
 20
571.697918
 30
0.0
 10
423.067918
 20
572.421787
 30
0.0
 10
421.142910
 20
573.261687
 30
0.0
  0
LWPOLYLINE
  5
228
100
AcDbEntity
  8
Layer_1
 62
7
100
AcDbPolyline
 90
3
 70
0
 10
380.770639
 20
616.180045
 30
0.0
 10
387.351156
 20
619.860076
 30
0.0
 10
397.997008
 20
619.276975
 30
0.0
  0
SPLINE
  5
229
100
AcDbEntity
  8
Layer_1
 62
7
100
AcDbSpline
 70
8
 71
3
 72
8
 73
4
 74
0
 40
0
 40
0
 40
0
 40
0
 40
1
 40
1
 40
1
 40
1
 10
436.302227
 20
576.519945
 30
0.0
 10
440.113748
 20
581.226956
 30
0.0
 10
441.350362
 20
596.648075
 30
0.0
 10
438.391304
 20
602.571447
 30
0.0
  0
SPLINE
  5
22a
100
AcDbEntity
  8
Layer_1
 62
7
100
AcDbSpline
 70
8
 71
3
 72
8
 73
4
 74
0
 40
0
 40
0
 40
0
 40
0
 40
1
 40
1
 40
1
 40
1
 10
438.391304
 20
602.571447
 30
0.0
 10
434.680583
 20
609.999497
 30
0.0
 10
421.984091
 20
614.844757
 30
0.0
 10
401.055676
 20
616.819555
 30
0.0
  0
LWPOLYLINE
  5
22b
100
AcDbEntity
  8
Layer_1
 62
7
100
AcDbPolyline
 90
1
 70
1
 10
421.142910
 20
573.261687
 30
0.0
  0
SPLINE
  5
22c
100
AcDbEntity
  8
Layer_1
 62
7
100
AcDbSpline
 70
8
 71
3
 72
8
 73
4
 74
0
 40
0
 40
0
 40
0
 40
0
 40
1
 40
1
 40
1
 40
1
 10
382.055669
 20
613.942325
 30
0.0
 10
375.645572
 20
610.508826
 30
0.0
 10
374.257162
 20
609.258776
 30
0.0
 10
371.791616
 20
604.701026
 30
0.0
  0
SPLINE
  5
22d
100
AcDbEntity
  8
Layer_1
 62
7
100
AcDbSpline
 70
8
 71
3
 72
8
 73
4
 74
0
 40
0
 40
0
 40
0
 40
0
 40
1
 40
1
 40
1
 40
1
 10
371.791616
 20
604.701026
 30
0.0
 10
369.974608
 20
601.342126
 30
0.0
 10
368.747830
 20
597.306677
 30
0.0
 10
368.409515
 20
593.575577
 30
0.0
  0
SPLINE
  5
22e
100
AcDbEntity
  8
Layer_1
 62
7
100
AcDbSpline
 70
8
 71
3
 72
8
 73
4
 74
0
 40
0
 40
0
 40
0
 40
0
 40
1
 40
1
 40
1
 40
1
 10
368.409515
 20
593.575577
 30
0.0
 10
367.921672
 20
588.195496
 30
0.0
 10
368.092460
 20
587.522645
 30
0.0
 10
370.516224
 20
585.276367
 30
0.0
  0
SPLINE
  5
22f
100
AcDbEntity
  8
Layer_1
 62
7
100
AcDbSpline
 70
8
 71
3
 72
8
 73
4
 74
0
 40
0
 40
0
 40
0
 40
0
 40
1
 40
1
 40
1
 40
1
 10
370.516224
 20
585.276367
 30
0.0
 10
374.461115
 20
581.620377
 30
0.0
 10
383.550009
 20
579.540376
 30
0.0
 10
402.029376
 20
578.064577
 30
0.0
  0
SPLINE
  5
230
100
AcDbEntity
  8
Layer_1
 62
7
100
AcDbSpline
 70
8
 71
3
 72
8
 73
4
 74
0
 40
0
 40
0
 40
0
 40
0
 40
1
 40
1
 40
1
 40
1
 10
402.029376
 20
578.064577
 30
0.0
 10
411.584910
 20
577.301445
 30
0.0
 10
420.342180
 20
576.073576
 30
0.0
 10
422.642863
 20
575.174336
 30
0.0
  0
SPLINE
  5
231
100
AcDbEntity
  8
Layer_1
 62
7
100
AcDbSpline
 70
8
 71
3
 72
8
 73
4
 74
0
 40
0
 40
0
 40
0
 40
0
 40
1
 40
1
 40
1
 40
1
 10
422.642863
 20
575.174336
 30
0.0
 10
427.791090
 20
573.162086
 30
0.0
 10
434.085307
 20
573.782136
 30
0.0
 10
436.302227
 20
576.519945
 30
0.0
  0
LWPOLYLINE
  5
232
100
AcDbEntity
  8
Layer_1
 62
7
100
AcDbPolyline
 90
3
 70
0
 10
401.055676
 20
616.819555
 30
0.0
 10
389.468466
 20
617.912915
 30
0.0
 10
382.055669
 20
613.942325
 30
0.0
  0
SPLINE
  5
233
100
AcDbEntity
  8
Layer_1
 62
7
100
AcDbSpline
 70
8
 71
3
 72
8
 73
4
 74
0
 40
0
 40
0
 40
0
 40
0
 40
1
 40
1
 40
1
 40
1
 10
391.642356
 20
588.518997
 30
0.0
 10
386.142066
 20
590.639287
 30
0.0
 10
379.504573
 20
592.694575
 30
0.0
 10
376.892334
 20
593.086306
 30
0.0
  0
SPLINE
  5
234
100
AcDbEntity
  8
Layer_1
 62
7
100
AcDbSpline
 70
8
 71
3
 72
8
 73
4
 74
0
 40
0
 40
0
 40
0
 40
0
 40
1
 40
1
 40
1
 40
1
 10
376.892334
 20
593.086306
 30
0.0
 10
374.057490
 20
593.511415
 30
0.0
 10
372.142857
 20
594.316996
 30
0.0
 10
372.142857
 20
595.084646
 30
0.0
  0
SPLINE
  5
235
100
AcDbEntity
  8
Layer_1
 62
7
100
AcDbSpline
 70
8
 71
3
 72
8
 73
4
 74
0
 40
0
 40
0
 40
0
 40
0
 40
1
 40
1
 40
1
 40
1
 10
372.142857
 20
595.084646
 30
0.0
 10
372.142857
 20
595.792006
 30
0.0
 10
374.730350
 20
598.739145
 30
0.0
 10
377.892850
 20
601.633837
 30
0.0
  0
SPLINE
  5
236
100
AcDbEntity
  8
Layer_1
 62
7
100
AcDbSpline
 70
8
 71
3
 72
8
 73
4
 74
0
 40
0
 40
0
 40
0
 40
0
 40
1
 40
1
 40
1
 40
1
 10
377.892850
 20
601.633837
 30
0.0
 10
384.253342
 20
607.455726
 30
0.0
 10
396.812296
 20
613.984575
 30
0.0
 10
401.580227
 20
613.947866
 30
0.0
  0
SPLINE
  5
237
100
AcDbEntity
  8
Layer_1
 62
7
100
AcDbSpline
 70
8
 71
3
 72
8
 73
4
 74
0
 40
0
 40
0
 40
0
 40
0
 40
1
 40
1
 40
1
 40
1
 10
401.580227
 20
613.947866
 30
0.0
 10
406.105852
 20
613.913057
 30
0.0
 10
415.954602
 20
608.827686
 30
0.0
 10
421.448003
 20
603.689255
 30
0.0
  0
SPLINE
  5
238
100
AcDbEntity
  8
Layer_1
 62
7
100
AcDbSpline
 70
8
 71
3
 72
8
 73
4
 74
0
 40
0
 40
0
 40
0
 40
0
 40
1
 40
1
 40
1
 40
1
 10
421.448003
 20
603.689255
 30
0.0
 10
428.689672
 20
596.915495
 30
0.0
 10
436.347950
 20
586.816237
 30
0.0
 10
434.914554
 20
585.930356
 30
0.0
  0
SPLINE
  5
239
100
AcDbEntity
  8
Layer_1
 62
7
100
AcDbSpline
 70
8
 71
3
 72
8
 73
4
 74
0
 40
0
 40
0
 40
0
 40
0
 40
1
 40
1
 40
1
 40
1
 10
434.914554
 20
585.930356
 30
0.0
 10
432.971575
 20
584.729527
 30
0.0
 10
425.018806
 20
585.226996
 30
0.0
 10
419.392800
 20
586.901276
 30
0.0
  0
SPLINE
  5
23a
100
AcDbEntity
  8
Layer_1
 62
7
100
AcDbSpline
 70
8
 71
3
 72
8
 73
4
 74
0
 40
0
 40
0
 40
0
 40
0
 40
1
 40
1
 40
1
 40
1
 10
419.392800
 20
586.901276
 30
0.0
 10
414.466526
 20
588.367327
 30
0.0
 10
413.793865
 20
588.343657
 30
0.0
 10
408.486246
 20
586.517567
 30
0.0
  0
SPLINE
  5
23b
100
AcDbEntity
  8
Layer_1
 62
7
100
AcDbSpline
 70
8
 71
3
 72
8
 73
4
 74
0
 40
0
 40
0
 40
0
 40
0
 40
1
 40
1
 40
1
 40
1
 10
408.486246
 20
586.517567
 30
0.0
 10
405.375165
 20
585.447197
 30
0.0
 10
402.562715
 20
584.592256
 30
0.0
 10
402.236306
 20
584.617686
 30
0.0
  0
SPLINE
  5
23c
100
AcDbEntity
  8
Layer_1
 62
7
100
AcDbSpline
 70
8
 71
3
 72
8
 73
4
 74
0
 40
0
 40
0
 40
0
 40
0
 40
1
 40
1
 40
1
 40
1
 10
402.236306
 20
584.617686
 30
0.0
 10
401.909896
 20
584.643197
 30
0.0
 10
397.142617
 20
586.398705
 30
0.0
 10
391.642356
 20
588.518997
 30
0.0
  0
LWPOLYLINE
  5
23d
100
AcDbEntity
  8
Layer_1
 62
7
100
AcDbPolyline
 90
1
 70
1
 10
436.302227
 20
576.519945
 30
0.0
  0
SPLINE
  5
23e
100
AcDbEntity
  8
Layer_1
 62
7
100
AcDbSpline
 70
8
 71
3
 72
8
 73
4
 74
0
 40
0
 40
0
 40
0
 40
0
 40
1
 40
1
 40
1
 40
1
 10
409.525512
 20
589.186165
 30
0.0
 10
413.887521
 20
590.672455
 30
0.0
 10
414.722154
 20
590.672455
 30
0.0
 10
420.019257
 20
589.186165
 30
0.0
  0
SPLINE
  5
23f
100
AcDbEntity
  8
Layer_1
 62
7
100
AcDbSpline
 70
8
 71
3
 72
8
 73
4
 74
0
 40
0
 40
0
 40
0
 40
0
 40
1
 40
1
 40
1
 40
1
 10
420.019257
 20
589.186165
 30
0.0
 10
423.184394
 20
588.298065
 30
0.0
 10
427.237682
 20
587.571446
 30
0.0
 10
429.026542
 20
587.571446
 30
0.0
  0
LWPOLYLINE
  5
240
100
AcDbEntity
  8
Layer_1
 62
7
100
AcDbPolyline
 90
1
 70
1
 10
391.642356
 20
588.518997
 30
0.0
  0
SPLINE
  5
241
100
AcDbEntity
  8
Layer_1
 62
7
100
AcDbSpline
 70
8
 71
3
 72
8
 73
4
 74
0
 40
0
 40
0
 40
0
 40
0
 40
1
 40
1
 40
1
 40
1
 10
430.002964
 20
590.821447
 30
0.0
 10
422.804013
 20
601.100756
 30
0.0
 10
411.041537
 20
609.902235
 30
0.0
 10
402.692343
 20
611.257127
 30
0.0
  0
SPLINE
  5
242
100
AcDbEntity
  8
Layer_1
 62
7
100
AcDbSpline
 70
8
 71
3
 72
8
 73
4
 74
0
 40
0
 40
0
 40
0
 40
0
 40
1
 40
1
 40
1
 40
1
 10
402.692343
 20
611.257127
 30
0.0
 10
398.129641
 20
611.997557
 30
0.0
 10
386.798088
 20
606.660806
 30
0.0
 10
379.738488
 20
600.446716
 30
0.0
  0
LWPOLYLINE
  5
243
100
AcDbEntity
  8
Layer_1
 62
7
100
AcDbPolyline
 90
3
 70
0
 10
429.026542
 20
587.571446
 30
0.0
 10
432.279043
 20
587.571446
 30
0.0
 10
430.002964
 20
590.821447
 30
0.0
  0
SPLINE
  5
244
100
AcDbEntity
  8
Layer_1
 62
7
100
AcDbSpline
 70
8
 71
3
 72
8
 73
4
 74
0
 40
0
 40
0
 40
0
 40
0
 40
1
 40
1
 40
1
 40
1
 10
382.808948
 20
593.984296
 30
0.0
 10
387.117581
 20
592.736097
 30
0.0
 10
392.667846
 20
590.792457
 30
0.0
 10
395.142860
 20
589.665095
 30
0.0
  0
SPLINE
  5
245
100
AcDbEntity
  8
Layer_1
 62
7
100
AcDbSpline
 70
8
 71
3
 72
8
 73
4
 74
0
 40
0
 40
0
 40
0
 40
0
 40
1
 40
1
 40
1
 40
1
 10
395.142860
 20
589.665095
 30
0.0
 10
400.609672
 20
587.174987
 30
0.0
 10
403.354743
 20
587.083575
 30
0.0
 10
409.525512
 20
589.186165
 30
0.0
  0
LWPOLYLINE
  5
246
100
AcDbEntity
  8
Layer_1
 62
7
100
AcDbPolyline
 90
3
 70
0
 10
379.738488
 20
600.446716
 30
0.0
 10
374.975065
 20
596.253767
 30
0.0
 10
382.808948
 20
593.984296
 30
0.0
  0
SPLINE
  5
247
100
AcDbEntity
  8
Layer_1
 62
7
100
AcDbSpline
 70
8
 71
3
 72
8
 73
4
 74
0
 40
0
 40
0
 40
0
 40
0
 40
1
 40
1
 40
1
 40
1
 10
286.625594
 20
583.321445
 30
0.0
 10
287.020346
 20
587.583947
 30
0.0
 10
287.502236
 20
591.237986
 30
0.0
 10
287.696523
 20
591.441545
 30
0.0
  0
SPLINE
  5
248
100
AcDbEntity
  8
Layer_1
 62
7
100
AcDbSpline
 70
8
 71
3
 72
8
 73
4
 74
0
 40
0
 40
0
 40
0
 40
0
 40
1
 40
1
 40
1
 40
1
 10
287.696523
 20
591.441545
 30
0.0
 10
289.379197
 20
593.204695
 30
0.0
 10
300.142857
 20
585.857565
 30
0.0
 10
300.142857
 20
582.945826
 30
0.0
  0
SPLINE
  5
249
100
AcDbEntity
  8
Layer_1
 62
7
100
AcDbSpline
 70
8
 71
3
 72
8
 73
4
 74
0
 40
0
 40
0
 40
0
 40
0
 40
1
 40
1
 40
1
 40
1
 10
300.142857
 20
582.945826
 30
0.0
 10
300.142857
 20
581.045426
 30
0.0
 10
291.373909
 20
575.571447
 30
0.0
 10
288.329584
 20
575.571447
 30
0.0
  0
SPLINE
  5
24a
100
AcDbEntity
  8
Layer_1
 62
7
100
AcDbSpline
 70
8
 71
3
 72
8
 73
4
 74
0
 40
0
 40
0
 40
0
 40
0
 40
1
 40
1
 40
1
 40
1
 10
288.329584
 20
575.571447
 30
0.0
 10
285.913899
 20
575.571447
 30
0.0
 10
285.909676
 20
575.590723
 30
0.0
 10
286.625594
 20
583.321445
 30
0.0
  0
LWPOLYLINE
  5
24b
100
AcDbEntity
  8
Layer_1
 62
7
100
AcDbPolyline
 90
1
 70
1
 10
409.525512
 20
589.186165
 30
0.0
  0
SPLINE
  5
24c
100
AcDbEntity
  8
Layer_1
 62
7
100
AcDbSpline
 70
8
 71
3
 72
8
 73
4
 74
0
 40
0
 40
0
 40
0
 40
0
 40
1
 40
1
 40
1
 40
1
 10
294.804595
 20
580.956905
 30
0.0
 10
297.242022
 20
583.053497
 30
0.0
 10
297.408954
 20
583.545875
 30
0.0
 10
296.183197
 20
585.022847
 30
0.0
  0
SPLINE
  5
24d
100
AcDbEntity
  8
Layer_1
 62
7
100
AcDbSpline
 70
8
 71
3
 72
8
 73
4
 74
0
 40
0
 40
0
 40
0
 40
0
 40
1
 40
1
 40
1
 40
1
 10
296.183197
 20
585.022847
 30
0.0
 10
295.416113
 20
585.947106
 30
0.0
 10
293.518233
 20
587.360205
 30
0.0
 10
291.965698
 20
588.163065
 30
0.0
  0
LWPOLYLINE
  5
24e
100
AcDbEntity
  8
Layer_1
 62
7
100
AcDbPolyline
 90
1
 70
1
 10
286.625594
 20
583.321445
 30
0.0
  0
SPLINE
  5
24f
100
AcDbEntity
  8
Layer_1
 62
7
100
AcDbSpline
 70
8
 71
3
 72
8
 73
4
 74
0
 40
0
 40
0
 40
0
 40
0
 40
1
 40
1
 40
1
 40
1
 10
289.142844
 20
584.097126
 30
0.0
 10
289.142844
 20
577.756706
 30
0.0
 10
290.323106
 20
577.102096
 30
0.0
 10
294.804595
 20
580.956905
 30
0.0
  0
LWPOLYLINE
  5
250
100
AcDbEntity
  8
Layer_1
 62
7
100
AcDbPolyline
 90
3
 70
0
 10
291.965698
 20
588.163065
 30
0.0
 10
289.142844
 20
589.622805
 30
0.0
 10
289.142844
 20
584.097126
 30
0.0
  0
SPLINE
  5
251
100
AcDbEntity
  8
Layer_1
 62
7
100
AcDbSpline
 70
8
 71
3
 72
8
 73
4
 74
0
 40
0
 40
0
 40
0
 40
0
 40
1
 40
1
 40
1
 40
1
 10
319.142863
 20
584.275946
 30
0.0
 10
319.142863
 20
586.803895
 30
0.0
 10
323.060627
 20
590.357585
 30
0.0
 10
331.642857
 20
595.614325
 30
0.0
  0
SPLINE
  5
252
100
AcDbEntity
  8
Layer_1
 62
7
100
AcDbSpline
 70
8
 71
3
 72
8
 73
4
 74
0
 40
0
 40
0
 40
0
 40
0
 40
1
 40
1
 40
1
 40
1
 10
331.642857
 20
595.614325
 30
0.0
 10
341.342079
 20
601.555246
 30
0.0
 10
342.987846
 20
603.238765
 30
0.0
 10
354.114709
 20
618.601805
 30
0.0
  0
SPLINE
  5
253
100
AcDbEntity
  8
Layer_1
 62
7
100
AcDbSpline
 70
8
 71
3
 72
8
 73
4
 74
0
 40
0
 40
0
 40
0
 40
0
 40
1
 40
1
 40
1
 40
1
 10
354.114709
 20
618.601805
 30
0.0
 10
366.084454
 20
635.128645
 30
0.0
 10
370.308643
 20
639.173846
 30
0.0
 10
376.578794
 20
640.114115
 30
0.0
  0
SPLINE
  5
254
100
AcDbEntity
  8
Layer_1
 62
7
100
AcDbSpline
 70
8
 71
3
 72
8
 73
4
 74
0
 40
0
 40
0
 40
0
 40
0
 40
1
 40
1
 40
1
 40
1
 10
376.578794
 20
640.114115
 30
0.0
 10
383.736217
 20
641.187437
 30
0.0
 10
393.475181
 20
640.238953
 30
0.0
 10
396.648850
 20
638.159465
 30
0.0
  0
SPLINE
  5
255
100
AcDbEntity
  8
Layer_1
 62
7
100
AcDbSpline
 70
8
 71
3
 72
8
 73
4
 74
0
 40
0
 40
0
 40
0
 40
0
 40
1
 40
1
 40
1
 40
1
 10
396.648850
 20
638.159465
 30
0.0
 10
400.130362
 20
635.878295
 30
0.0
 10
399.521310
 20
635.476626
 30
0.0
 10
388.196702
 20
632.585197
 30
0.0
  0
SPLINE
  5
256
100
AcDbEntity
  8
Layer_1
 62
7
100
AcDbSpline
 70
8
 71
3
 72
8
 73
4
 74
0
 40
0
 40
0
 40
0
 40
0
 40
1
 40
1
 40
1
 40
1
 10
388.196702
 20
632.585197
 30
0.0
 10
383.569710
 20
631.403827
 30
0.0
 10
378.558680
 20
629.803607
 30
0.0
 10
377.061052
 20
629.029145
 30
0.0
  0
SPLINE
  5
257
100
AcDbEntity
  8
Layer_1
 62
7
100
AcDbSpline
 70
8
 71
3
 72
8
 73
4
 74
0
 40
0
 40
0
 40
0
 40
0
 40
1
 40
1
 40
1
 40
1
 10
377.061052
 20
629.029145
 30
0.0
 10
375.563424
 20
628.254697
 30
0.0
 10
369.815131
 20
621.366596
 30
0.0
 10
364.287090
 20
613.722257
 30
0.0
  0
SPLINE
  5
258
100
AcDbEntity
  8
Layer_1
 62
7
100
AcDbSpline
 70
8
 71
3
 72
8
 73
4
 74
0
 40
0
 40
0
 40
0
 40
0
 40
1
 40
1
 40
1
 40
1
 10
364.287090
 20
613.722257
 30
0.0
 10
351.562479
 20
596.126367
 30
0.0
 10
348.001569
 20
592.981736
 30
0.0
 10
334.921465
 20
587.789575
 30
0.0
  0
SPLINE
  5
259
100
AcDbEntity
  8
Layer_1
 62
7
100
AcDbSpline
 70
8
 71
3
 72
8
 73
4
 74
0
 40
0
 40
0
 40
0
 40
0
 40
1
 40
1
 40
1
 40
1
 10
334.921465
 20
587.789575
 30
0.0
 10
320.957858
 20
582.246706
 30
0.0
 10
319.142863
 20
581.842536
 30
0.0
 10
319.142863
 20
584.275946
 30
0.0
  0
LWPOLYLINE
  5
25a
100
AcDbEntity
  8
Layer_1
 62
7
100
AcDbPolyline
 90
1
 70
1
 10
294.804595
 20
580.956905
 30
0.0
  0
SPLINE
  5
25b
100
AcDbEntity
  8
Layer_1
 62
7
100
AcDbSpline
 70
8
 71
3
 72
8
 73
4
 74
0
 40
0
 40
0
 40
0
 40
0
 40
1
 40
1
 40
1
 40
1
 10
333.963128
 20
589.808877
 30
0.0
 10
346.854784
 20
594.923936
 30
0.0
 10
350.782866
 20
598.438967
 30
0.0
 10
362.995597
 20
615.788447
 30
0.0
  0
SPLINE
  5
25c
100
AcDbEntity
  8
Layer_1
 62
7
100
AcDbSpline
 70
8
 71
3
 72
8
 73
4
 74
0
 40
0
 40
0
 40
0
 40
0
 40
1
 40
1
 40
1
 40
1
 10
362.995597
 20
615.788447
 30
0.0
 10
367.531937
 20
622.232807
 30
0.0
 10
372.371301
 20
628.392597
 30
0.0
 10
373.749761
 20
629.476875
 30
0.0
  0
SPLINE
  5
25d
100
AcDbEntity
  8
Layer_1
 62
7
100
AcDbSpline
 70
8
 71
3
 72
8
 73
4
 74
0
 40
0
 40
0
 40
0
 40
0
 40
1
 40
1
 40
1
 40
1
 10
373.749761
 20
629.476875
 30
0.0
 10
376.212246
 20
631.413865
 30
0.0
 10
381.234104
 20
633.302895
 30
0.0
 10
390.142857
 20
635.643326
 30
0.0
  0
SPLINE
  5
25e
100
AcDbEntity
  8
Layer_1
 62
7
100
AcDbSpline
 70
8
 71
3
 72
8
 73
4
 74
0
 40
0
 40
0
 40
0
 40
0
 40
1
 40
1
 40
1
 40
1
 10
390.142857
 20
635.643326
 30
0.0
 10
393.891562
 20
636.628156
 30
0.0
 10
394.308964
 20
636.959537
 30
0.0
 10
392.642844
 20
637.628207
 30
0.0
  0
SPLINE
  5
25f
100
AcDbEntity
  8
Layer_1
 62
7
100
AcDbSpline
 70
8
 71
3
 72
8
 73
4
 74
0
 40
0
 40
0
 40
0
 40
0
 40
1
 40
1
 40
1
 40
1
 10
392.642844
 20
637.628207
 30
0.0
 10
389.902620
 20
638.727956
 30
0.0
 10
380.499931
 20
638.719067
 30
0.0
 10
375.642850
 20
637.612050
 30
0.0
  0
SPLINE
  5
260
100
AcDbEntity
  8
Layer_1
 62
7
100
AcDbSpline
 70
8
 71
3
 72
8
 73
4
 74
0
 40
0
 40
0
 40
0
 40
0
 40
1
 40
1
 40
1
 40
1
 10
375.642850
 20
637.612050
 30
0.0
 10
370.820948
 20
636.513140
 30
0.0
 10
365.964945
 20
631.490088
 30
0.0
 10
356.330551
 20
617.635361
 30
0.0
  0
SPLINE
  5
261
100
AcDbEntity
  8
Layer_1
 62
7
100
AcDbSpline
 70
8
 71
3
 72
8
 73
4
 74
0
 40
0
 40
0
 40
0
 40
0
 40
1
 40
1
 40
1
 40
1
 10
356.330551
 20
617.635361
 30
0.0
 10
346.979254
 20
604.187759
 30
0.0
 10
343.011118
 20
600.181299
 30
0.0
 10
331.892844
 20
592.961700
 30
0.0
  0
SPLINE
  5
262
100
AcDbEntity
  8
Layer_1
 62
7
100
AcDbSpline
 70
8
 71
3
 72
8
 73
4
 74
0
 40
0
 40
0
 40
0
 40
0
 40
1
 40
1
 40
1
 40
1
 10
331.892844
 20
592.961700
 30
0.0
 10
318.204624
 20
584.073281
 30
0.0
 10
318.473972
 20
583.663110
 30
0.0
 10
333.963128
 20
589.808801
 30
0.0
  0
LWPOLYLINE
  5
263
100
AcDbEntity
  8
Layer_1
 62
7
100
AcDbPolyline
 90
1
 70
1
 10
319.142863
 20
584.275946
 30
0.0
  0
SPLINE
  5
264
100
AcDbEntity
  8
Layer_1
 62
7
100
AcDbSpline
 70
8
 71
3
 72
8
 73
4
 74
0
 40
0
 40
0
 40
0
 40
0
 40
1
 40
1
 40
1
 40
1
 10
176.142855
 20
585.520087
 30
0.0
 10
176.142855
 20
587.918205
 30
0.0
 10
183.630044
 20
596.654535
 30
0.0
 10
200.295383
 20
613.702145
 30
0.0
  0
SPLINE
  5
265
100
AcDbEntity
  8
Layer_1
 62
7
100
AcDbSpline
 70
8
 71
3
 72
8
 73
4
 74
0
 40
0
 40
0
 40
0
 40
0
 40
1
 40
1
 40
1
 40
1
 10
200.295383
 20
613.702145
 30
0.0
 10
218.646794
 20
632.474507
 30
0.0
 10
227.265953
 20
636.682346
 30
0.0
 10
256.188104
 20
640.988705
 30
0.0
  0
SPLINE
  5
266
100
AcDbEntity
  8
Layer_1
 62
7
100
AcDbSpline
 70
8
 71
3
 72
8
 73
4
 74
0
 40
0
 40
0
 40
0
 40
0
 40
1
 40
1
 40
1
 40
1
 10
256.188104
 20
640.988705
 30
0.0
 10
290.655071
 20
646.120675
 30
0.0
 10
330.142847
 20
649.254827
 30
0.0
 10
330.142847
 20
646.858505
 30
0.0
  0
SPLINE
  5
267
100
AcDbEntity
  8
Layer_1
 62
7
100
AcDbSpline
 70
8
 71
3
 72
8
 73
4
 74
0
 40
0
 40
0
 40
0
 40
0
 40
1
 40
1
 40
1
 40
1
 10
330.142847
 20
646.858505
 30
0.0
 10
330.142847
 20
646.300137
 30
0.0
 10
328.230340
 20
645.578357
 30
0.0
 10
325.892863
 20
645.254555
 30
0.0
  0
SPLINE
  5
268
100
AcDbEntity
  8
Layer_1
 62
7
100
AcDbSpline
 70
8
 71
3
 72
8
 73
4
 74
0
 40
0
 40
0
 40
0
 40
0
 40
1
 40
1
 40
1
 40
1
 10
325.892863
 20
645.254555
 30
0.0
 10
255.934315
 20
635.563366
 30
0.0
 10
240.595345
 20
633.236247
 30
0.0
 10
234.925843
 20
631.453725
 30
0.0
  0
SPLINE
  5
269
100
AcDbEntity
  8
Layer_1
 62
7
100
AcDbSpline
 70
8
 71
3
 72
8
 73
4
 74
0
 40
0
 40
0
 40
0
 40
0
 40
1
 40
1
 40
1
 40
1
 10
234.925843
 20
631.453725
 30
0.0
 10
224.577533
 20
628.200156
 30
0.0
 10
214.479153
 20
621.781605
 30
0.0
 10
208.159285
 20
614.440826
 30
0.0
  0
SPLINE
  5
26a
100
AcDbEntity
  8
Layer_1
 62
7
100
AcDbSpline
 70
8
 71
3
 72
8
 73
4
 74
0
 40
0
 40
0
 40
0
 40
0
 40
1
 40
1
 40
1
 40
1
 10
208.159285
 20
614.440826
 30
0.0
 10
198.912784
 20
603.700676
 30
0.0
 10
181.797613
 20
586.451835
 30
0.0
 10
178.892855
 20
584.945847
 30
0.0
  0
SPLINE
  5
26b
100
AcDbEntity
  8
Layer_1
 62
7
100
AcDbSpline
 70
8
 71
3
 72
8
 73
4
 74
0
 40
0
 40
0
 40
0
 40
0
 40
1
 40
1
 40
1
 40
1
 10
178.892855
 20
584.945847
 30
0.0
 10
176.334265
 20
583.619326
 30
0.0
 10
176.142855
 20
583.659295
 30
0.0
 10
176.142855
 20
585.520087
 30
0.0
  0
LWPOLYLINE
  5
26c
100
AcDbEntity
  8
Layer_1
 62
7
100
AcDbPolyline
 90
1
 70
1
 10
333.963128
 20
589.808801
 30
0.0
  0
LWPOLYLINE
  5
26d
100
AcDbEntity
  8
Layer_1
 62
7
100
AcDbPolyline
 90
1
 70
1
 10
176.142855
 20
585.520087
 30
0.0
  0
SPLINE
  5
26e
100
AcDbEntity
  8
Layer_1
 62
7
100
AcDbSpline
 70
8
 71
3
 72
8
 73
4
 74
0
 40
0
 40
0
 40
0
 40
0
 40
1
 40
1
 40
1
 40
1
 10
197.756484
 20
607.571447
 30
0.0
 10
189.991933
 20
600.112916
 30
0.0
 10
178.105963
 20
586.626735
 30
0.0
 10
184.536315
 20
592.571446
 30
0.0
  0
SPLINE
  5
26f
100
AcDbEntity
  8
Layer_1
 62
7
100
AcDbSpline
 70
8
 71
3
 72
8
 73
4
 74
0
 40
0
 40
0
 40
0
 40
0
 40
1
 40
1
 40
1
 40
1
 10
184.536315
 20
592.571446
 30
0.0
 10
186.618574
 20
594.496446
 30
0.0
 10
191.967454
 20
600.121446
 30
0.0
 10
196.422704
 20
605.071446
 30
0.0
  0
LWPOLYLINE
  5
270
100
AcDbEntity
  8
Layer_1
 62
7
100
AcDbPolyline
 90
3
 70
0
 10
196.422704
 20
605.071446
 30
0.0
 10
204.523174
 20
614.071446
 30
0.0
 10
197.756484
 20
607.571447
 30
0.0
  0
SPLINE
  5
271
100
AcDbEntity
  8
Layer_1
 62
7
100
AcDbSpline
 70
8
 71
3
 72
8
 73
4
 74
0
 40
0
 40
0
 40
0
 40
0
 40
1
 40
1
 40
1
 40
1
 10
248.872025
 20
637.175616
 30
0.0
 10
248.539725
 20
637.507905
 30
0.0
 10
247.677225
 20
637.543426
 30
0.0
 10
246.955354
 20
637.254505
 30
0.0
  0
SPLINE
  5
272
100
AcDbEntity
  8
Layer_1
 62
7
100
AcDbSpline
 70
8
 71
3
 72
8
 73
4
 74
0
 40
0
 40
0
 40
0
 40
0
 40
1
 40
1
 40
1
 40
1
 10
246.955354
 20
637.254505
 30
0.0
 10
246.157625
 20
636.935284
 30
0.0
 10
246.394573
 20
636.698324
 30
0.0
 10
247.559525
 20
636.650345
 30
0.0
  0
SPLINE
  5
273
100
AcDbEntity
  8
Layer_1
 62
7
100
AcDbSpline
 70
8
 71
3
 72
8
 73
4
 74
0
 40
0
 40
0
 40
0
 40
0
 40
1
 40
1
 40
1
 40
1
 10
247.559525
 20
636.650345
 30
0.0
 10
248.613684
 20
636.606947
 30
0.0
 10
249.204314
 20
636.843271
 30
0.0
 10
248.872025
 20
637.175565
 30
0.0
  0
LWPOLYLINE
  5
274
100
AcDbEntity
  8
Layer_1
 62
7
100
AcDbPolyline
 90
1
 70
1
 10
196.422704
 20
605.071446
 30
0.0
  0
SPLINE
  5
275
100
AcDbEntity
  8
Layer_1
 62
7
100
AcDbSpline
 70
8
 71
3
 72
8
 73
4
 74
0
 40
0
 40
0
 40
0
 40
0
 40
1
 40
1
 40
1
 40
1
 10
255.392855
 20
638.233727
 30
0.0
 10
254.705355
 20
638.511126
 30
0.0
 10
253.580355
 20
638.511126
 30
0.0
 10
252.892854
 20
638.233727
 30
0.0
  0
SPLINE
  5
276
100
AcDbEntity
  8
Layer_1
 62
7
100
AcDbSpline
 70
8
 71
3
 72
8
 73
4
 74
0
 40
0
 40
0
 40
0
 40
0
 40
1
 40
1
 40
1
 40
1
 10
252.892854
 20
638.233727
 30
0.0
 10
252.205353
 20
637.956329
 30
0.0
 10
252.767846
 20
637.729336
 30
0.0
 10
254.142853
 20
637.729336
 30
0.0
  0
SPLINE
  5
277
100
AcDbEntity
  8
Layer_1
 62
7
100
AcDbSpline
 70
8
 71
3
 72
8
 73
4
 74
0
 40
0
 40
0
 40
0
 40
0
 40
1
 40
1
 40
1
 40
1
 10
254.142853
 20
637.729336
 30
0.0
 10
255.517855
 20
637.729336
 30
0.0
 10
256.080353
 20
637.956306
 30
0.0
 10
255.392855
 20
638.233727
 30
0.0
  0
LWPOLYLINE
  5
278
100
AcDbEntity
  8
Layer_1
 62
7
100
AcDbPolyline
 90
1
 70
1
 10
248.872025
 20
637.175565
 30
0.0
  0
SPLINE
  5
279
100
AcDbEntity
  8
Layer_1
 62
7
100
AcDbSpline
 70
8
 71
3
 72
8
 73
4
 74
0
 40
0
 40
0
 40
0
 40
0
 40
1
 40
1
 40
1
 40
1
 10
263.411884
 20
639.227387
 30
0.0
 10
262.734854
 20
639.501299
 30
0.0
 10
261.384854
 20
639.517975
 30
0.0
 10
260.411885
 20
639.264492
 30
0.0
  0
SPLINE
  5
27a
100
AcDbEntity
  8
Layer_1
 62
7
100
AcDbSpline
 70
8
 71
3
 72
8
 73
4
 74
0
 40
0
 40
0
 40
0
 40
0
 40
1
 40
1
 40
1
 40
1
 10
260.411885
 20
639.264492
 30
0.0
 10
259.438915
 20
639.010962
 30
0.0
 10
259.992853
 20
638.786832
 30
0.0
 10
261.642855
 20
638.766451
 30
0.0
  0
SPLINE
  5
27b
100
AcDbEntity
  8
Layer_1
 62
7
100
AcDbSpline
 70
8
 71
3
 72
8
 73
4
 74
0
 40
0
 40
0
 40
0
 40
0
 40
1
 40
1
 40
1
 40
1
 10
261.642855
 20
638.766451
 30
0.0
 10
263.292854
 20
638.746041
 30
0.0
 10
264.088913
 20
638.953509
 30
0.0
 10
263.411884
 20
639.227441
 30
0.0
  0
LWPOLYLINE
  5
27c
100
AcDbEntity
  8
Layer_1
 62
7
100
AcDbPolyline
 90
1
 70
1
 10
255.392855
 20
638.233727
 30
0.0
  0
SPLINE
  5
27d
100
AcDbEntity
  8
Layer_1
 62
7
100
AcDbSpline
 70
8
 71
3
 72
8
 73
4
 74
0
 40
0
 40
0
 40
0
 40
0
 40
1
 40
1
 40
1
 40
1
 10
269.892853
 20
640.260777
 30
0.0
 10
268.930355
 20
640.512295
 30
0.0
 10
267.355355
 20
640.512295
 30
0.0
 10
266.392854
 20
640.260777
 30
0.0
  0
SPLINE
  5
27e
100
AcDbEntity
  8
Layer_1
 62
7
100
AcDbSpline
 70
8
 71
3
 72
8
 73
4
 74
0
 40
0
 40
0
 40
0
 40
0
 40
1
 40
1
 40
1
 40
1
 10
266.392854
 20
640.260777
 30
0.0
 10
265.430353
 20
640.009259
 30
0.0
 10
266.217843
 20
639.803446
 30
0.0
 10
268.142854
 20
639.803446
 30
0.0
  0
SPLINE
  5
27f
100
AcDbEntity
  8
Layer_1
 62
7
100
AcDbSpline
 70
8
 71
3
 72
8
 73
4
 74
0
 40
0
 40
0
 40
0
 40
0
 40
1
 40
1
 40
1
 40
1
 10
268.142854
 20
639.803446
 30
0.0
 10
270.067853
 20
639.803446
 30
0.0
 10
270.855354
 20
640.009242
 30
0.0
 10
269.892853
 20
640.260777
 30
0.0
  0
LWPOLYLINE
  5
280
100
AcDbEntity
  8
Layer_1
 62
7
100
AcDbPolyline
 90
1
 70
1
 10
263.411884
 20
639.227441
 30
0.0
  0
SPLINE
  5
281
100
AcDbEntity
  8
Layer_1
 62
7
100
AcDbSpline
 70
8
 71
3
 72
8
 73
4
 74
0
 40
0
 40
0
 40
0
 40
0
 40
1
 40
1
 40
1
 40
1
 10
277.411884
 20
641.227385
 30
0.0
 10
276.734854
 20
641.501297
 30
0.0
 10
275.384854
 20
641.517976
 30
0.0
 10
274.411885
 20
641.264491
 30
0.0
  0
SPLINE
  5
282
100
AcDbEntity
  8
Layer_1
 62
7
100
AcDbSpline
 70
8
 71
3
 72
8
 73
4
 74
0
 40
0
 40
0
 40
0
 40
0
 40
1
 40
1
 40
1
 40
1
 10
274.411885
 20
641.264491
 30
0.0
 10
273.438913
 20
641.010960
 30
0.0
 10
273.992854
 20
640.786833
 30
0.0
 10
275.642855
 20
640.766452
 30
0.0
  0
SPLINE
  5
283
100
AcDbEntity
  8
Layer_1
 62
7
100
AcDbSpline
 70
8
 71
3
 72
8
 73
4
 74
0
 40
0
 40
0
 40
0
 40
0
 40
1
 40
1
 40
1
 40
1
 10
275.642855
 20
640.766452
 30
0.0
 10
277.292854
 20
640.746043
 30
0.0
 10
278.088914
 20
640.953510
 30
0.0
 10
277.411884
 20
641.227442
 30
0.0
  0
LWPOLYLINE
  5
284
100
AcDbEntity
  8
Layer_1
 62
7
100
AcDbPolyline
 90
1
 70
1
 10
269.892853
 20
640.260777
 30
0.0
  0
SPLINE
  5
285
100
AcDbEntity
  8
Layer_1
 62
7
100
AcDbSpline
 70
8
 71
3
 72
8
 73
4
 74
0
 40
0
 40
0
 40
0
 40
0
 40
1
 40
1
 40
1
 40
1
 10
284.411877
 20
642.227386
 30
0.0
 10
283.734850
 20
642.501298
 30
0.0
 10
282.384853
 20
642.517977
 30
0.0
 10
281.411884
 20
642.264491
 30
0.0
  0
SPLINE
  5
286
100
AcDbEntity
  8
Layer_1
 62
7
100
AcDbSpline
 70
8
 71
3
 72
8
 73
4
 74
0
 40
0
 40
0
 40
0
 40
0
 40
1
 40
1
 40
1
 40
1
 10
281.411884
 20
642.264491
 30
0.0
 10
280.438914
 20
642.010961
 30
0.0
 10
280.992855
 20
641.786831
 30
0.0
 10
282.642854
 20
641.766453
 30
0.0
  0
SPLINE
  5
287
100
AcDbEntity
  8
Layer_1
 62
7
100
AcDbSpline
 70
8
 71
3
 72
8
 73
4
 74
0
 40
0
 40
0
 40
0
 40
0
 40
1
 40
1
 40
1
 40
1
 10
282.642854
 20
641.766453
 30
0.0
 10
284.292850
 20
641.746043
 30
0.0
 10
285.088904
 20
641.953511
 30
0.0
 10
284.411877
 20
642.227443
 30
0.0
  0
LWPOLYLINE
  5
288
100
AcDbEntity
  8
Layer_1
 62
7
100
AcDbPolyline
 90
1
 70
1
 10
277.411884
 20
641.227442
 30
0.0
  0
SPLINE
  5
289
100
AcDbEntity
  8
Layer_1
 62
7
100
AcDbSpline
 70
8
 71
3
 72
8
 73
4
 74
0
 40
0
 40
0
 40
0
 40
0
 40
1
 40
1
 40
1
 40
1
 10
302.892860
 20
593.154346
 30
0.0
 10
301.464227
 20
594.583815
 30
0.0
 10
302.183773
 20
595.298466
 30
0.0
 10
310.876243
 20
601.083187
 30
0.0
  0
SPLINE
  5
28a
100
AcDbEntity
  8
Layer_1
 62
7
100
AcDbSpline
 70
8
 71
3
 72
8
 73
4
 74
0
 40
0
 40
0
 40
0
 40
0
 40
1
 40
1
 40
1
 40
1
 10
310.876243
 20
601.083187
 30
0.0
 10
320.993376
 20
607.816006
 30
0.0
 10
321.004800
 20
607.828966
 30
0.0
 10
331.964589
 20
625.019057
 30
0.0
  0
SPLINE
  5
28b
100
AcDbEntity
  8
Layer_1
 62
7
100
AcDbSpline
 70
8
 71
3
 72
8
 73
4
 74
0
 40
0
 40
0
 40
0
 40
0
 40
1
 40
1
 40
1
 40
1
 10
331.964589
 20
625.019057
 30
0.0
 10
341.554989
 20
640.061286
 30
0.0
 10
344.169468
 20
643.095096
 30
0.0
 10
348.882775
 20
644.650625
 30
0.0
  0
SPLINE
  5
28c
100
AcDbEntity
  8
Layer_1
 62
7
100
AcDbSpline
 70
8
 71
3
 72
8
 73
4
 74
0
 40
0
 40
0
 40
0
 40
0
 40
1
 40
1
 40
1
 40
1
 10
348.882775
 20
644.650625
 30
0.0
 10
352.367518
 20
645.800695
 30
0.0
 10
359.480608
 20
645.237196
 30
0.0
 10
362.103080
 20
643.603317
 30
0.0
  0
SPLINE
  5
28d
100
AcDbEntity
  8
Layer_1
 62
7
100
AcDbSpline
 70
8
 71
3
 72
8
 73
4
 74
0
 40
0
 40
0
 40
0
 40
0
 40
1
 40
1
 40
1
 40
1
 10
362.103080
 20
643.603317
 30
0.0
 10
363.353953
 20
642.823997
 30
0.0
 10
363.300775
 20
642.403417
 30
0.0
 10
361.732167
 20
640.670136
 30
0.0
  0
SPLINE
  5
28e
100
AcDbEntity
  8
Layer_1
 62
7
100
AcDbSpline
 70
8
 71
3
 72
8
 73
4
 74
0
 40
0
 40
0
 40
0
 40
0
 40
1
 40
1
 40
1
 40
1
 10
361.732167
 20
640.670136
 30
0.0
 10
360.725046
 20
639.557266
 30
0.0
 10
358.267946
 20
638.124106
 30
0.0
 10
356.271931
 20
637.485327
 30
0.0
  0
SPLINE
  5
28f
100
AcDbEntity
  8
Layer_1
 62
7
100
AcDbSpline
 70
8
 71
3
 72
8
 73
4
 74
0
 40
0
 40
0
 40
0
 40
0
 40
1
 40
1
 40
1
 40
1
 10
356.271931
 20
637.485327
 30
0.0
 10
349.626331
 20
635.358546
 30
0.0
 10
346.890302
 20
632.245785
 30
0.0
 10
339.142847
 20
617.997827
 30
0.0
  0
SPLINE
  5
290
100
AcDbEntity
  8
Layer_1
 62
7
100
AcDbSpline
 70
8
 71
3
 72
8
 73
4
 74
0
 40
0
 40
0
 40
0
 40
0
 40
1
 40
1
 40
1
 40
1
 10
339.142847
 20
617.997827
 30
0.0
 10
330.357118
 20
601.840386
 30
0.0
 10
327.569499
 20
598.590096
 30
0.0
 10
320.125266
 20
595.823797
 30
0.0
  0
SPLINE
  5
291
100
AcDbEntity
  8
Layer_1
 62
7
100
AcDbSpline
 70
8
 71
3
 72
8
 73
4
 74
0
 40
0
 40
0
 40
0
 40
0
 40
1
 40
1
 40
1
 40
1
 10
320.125266
 20
595.823797
 30
0.0
 10
313.971647
 20
593.537077
 30
0.0
 10
304.046872
 20
591.999647
 30
0.0
 10
302.892860
 20
593.154346
 30
0.0
  0
LWPOLYLINE
  5
292
100
AcDbEntity
  8
Layer_1
 62
7
100
AcDbPolyline
 90
1
 70
1
 10
284.411877
 20
642.227443
 30
0.0
  0
SPLINE
  5
293
100
AcDbEntity
  8
Layer_1
 62
7
100
AcDbSpline
 70
8
 71
3
 72
8
 73
4
 74
0
 40
0
 40
0
 40
0
 40
0
 40
1
 40
1
 40
1
 40
1
 10
317.079099
 20
597.145156
 30
0.0
 10
324.700639
 20
599.408507
 30
0.0
 10
328.948724
 20
604.058757
 30
0.0
 10
337.109131
 20
619.071446
 30
0.0
  0
SPLINE
  5
294
100
AcDbEntity
  8
Layer_1
 62
7
100
AcDbSpline
 70
8
 71
3
 72
8
 73
4
 74
0
 40
0
 40
0
 40
0
 40
0
 40
1
 40
1
 40
1
 40
1
 10
337.109131
 20
619.071446
 30
0.0
 10
344.692006
 20
633.021667
 30
0.0
 10
348.660057
 20
637.511006
 30
0.0
 10
355.117606
 20
639.445737
 30
0.0
  0
SPLINE
  5
295
100
AcDbEntity
  8
Layer_1
 62
7
100
AcDbSpline
 70
8
 71
3
 72
8
 73
4
 74
0
 40
0
 40
0
 40
0
 40
0
 40
1
 40
1
 40
1
 40
1
 10
355.117606
 20
639.445737
 30
0.0
 10
357.331493
 20
640.109027
 30
0.0
 10
359.142860
 20
641.032586
 30
0.0
 10
359.142860
 20
641.498085
 30
0.0
  0
SPLINE
  5
296
100
AcDbEntity
  8
Layer_1
 62
7
100
AcDbSpline
 70
8
 71
3
 72
8
 73
4
 74
0
 40
0
 40
0
 40
0
 40
0
 40
1
 40
1
 40
1
 40
1
 10
359.142860
 20
641.498085
 30
0.0
 10
359.142860
 20
642.940597
 30
0.0
 10
352.822620
 20
643.384295
 30
0.0
 10
349.162243
 20
642.198756
 30
0.0
  0
SPLINE
  5
297
100
AcDbEntity
  8
Layer_1
 62
7
100
AcDbSpline
 70
8
 71
3
 72
8
 73
4
 74
0
 40
0
 40
0
 40
0
 40
0
 40
1
 40
1
 40
1
 40
1
 10
349.162243
 20
642.198756
 30
0.0
 10
345.405005
 20
640.981845
 30
0.0
 10
341.624296
 20
636.131585
 30
0.0
 10
329.142841
 20
616.516036
 30
0.0
  0
SPLINE
  5
298
100
AcDbEntity
  8
Layer_1
 62
7
100
AcDbSpline
 70
8
 71
3
 72
8
 73
4
 74
0
 40
0
 40
0
 40
0
 40
0
 40
1
 40
1
 40
1
 40
1
 10
329.142841
 20
616.516036
 30
0.0
 10
323.436784
 20
607.548487
 30
0.0
 10
321.757342
 20
605.702877
 30
0.0
 10
315.392854
 20
601.405637
 30
0.0
  0
SPLINE
  5
299
100
AcDbEntity
  8
Layer_1
 62
7
100
AcDbSpline
 70
8
 71
3
 72
8
 73
4
 74
0
 40
0
 40
0
 40
0
 40
0
 40
1
 40
1
 40
1
 40
1
 10
315.392854
 20
601.405637
 30
0.0
 10
311.405357
 20
598.713316
 30
0.0
 10
308.142850
 20
596.299215
 30
0.0
 10
308.142850
 20
596.040976
 30
0.0
  0
SPLINE
  5
29a
100
AcDbEntity
  8
Layer_1
 62
7
100
AcDbSpline
 70
8
 71
3
 72
8
 73
4
 74
0
 40
0
 40
0
 40
0
 40
0
 40
1
 40
1
 40
1
 40
1
 10
308.142850
 20
596.040976
 30
0.0
 10
308.142850
 20
595.131877
 30
0.0
 10
311.836535
 20
595.588275
 30
0.0
 10
317.079099
 20
597.145156
 30
0.0
  0
LWPOLYLINE
  5
29b
100
AcDbEntity
  8
Layer_1
 62
7
100
AcDbPolyline
 90
1
 70
1
 10
302.892860
 20
593.154346
 30
0.0
  0
SPLINE
  5
29c
100
AcDbEntity
  8
Layer_1
 62
7
100
AcDbSpline
 70
8
 71
3
 72
8
 73
4
 74
0
 40
0
 40
0
 40
0
 40
0
 40
1
 40
1
 40
1
 40
1
 10
195.845695
 20
594.201937
 30
0.0
 10
195.077764
 20
594.969866
 30
0.0
 10
202.555505
 20
604.695005
 30
0.0
 10
210.450124
 20
613.195676
 30
0.0
  0
SPLINE
  5
29d
100
AcDbEntity
  8
Layer_1
 62
7
100
AcDbSpline
 70
8
 71
3
 72
8
 73
4
 74
0
 40
0
 40
0
 40
0
 40
0
 40
1
 40
1
 40
1
 40
1
 10
210.450124
 20
613.195676
 30
0.0
 10
216.290494
 20
619.484397
 30
0.0
 10
221.120603
 20
622.038957
 30
0.0
 10
228.572124
 20
622.780095
 30
0.0
  0
SPLINE
  5
29e
100
AcDbEntity
  8
Layer_1
 62
7
100
AcDbSpline
 70
8
 71
3
 72
8
 73
4
 74
0
 40
0
 40
0
 40
0
 40
0
 40
1
 40
1
 40
1
 40
1
 10
228.572124
 20
622.780095
 30
0.0
 10
231.093485
 20
623.030876
 30
0.0
 10
231.888594
 20
622.444816
 30
0.0
 10
234.281974
 20
618.571446
 30
0.0
  0
SPLINE
  5
29f
100
AcDbEntity
  8
Layer_1
 62
7
100
AcDbSpline
 70
8
 71
3
 72
8
 73
4
 74
0
 40
0
 40
0
 40
0
 40
0
 40
1
 40
1
 40
1
 40
1
 10
234.281974
 20
618.571446
 30
0.0
 10
235.811293
 20
616.096446
 30
0.0
 10
237.630433
 20
611.909697
 30
0.0
 10
238.324524
 20
609.267555
 30
0.0
  0
SPLINE
  5
2a0
100
AcDbEntity
  8
Layer_1
 62
7
100
AcDbSpline
 70
8
 71
3
 72
8
 73
4
 74
0
 40
0
 40
0
 40
0
 40
0
 40
1
 40
1
 40
1
 40
1
 10
238.324524
 20
609.267555
 30
0.0
 10
239.844923
 20
603.479897
 30
0.0
 10
239.309484
 20
602.941796
 30
0.0
 10
231.151465
 20
602.058815
 30
0.0
  0
SPLINE
  5
2a1
100
AcDbEntity
  8
Layer_1
 62
7
100
AcDbSpline
 70
8
 71
3
 72
8
 73
4
 74
0
 40
0
 40
0
 40
0
 40
0
 40
1
 40
1
 40
1
 40
1
 10
231.151465
 20
602.058815
 30
0.0
 10
221.468564
 20
601.010796
 30
0.0
 10
210.082113
 20
598.531397
 30
0.0
 10
203.398084
 20
596.015535
 30
0.0
  0
SPLINE
  5
2a2
100
AcDbEntity
  8
Layer_1
 62
7
100
AcDbSpline
 70
8
 71
3
 72
8
 73
4
 74
0
 40
0
 40
0
 40
0
 40
0
 40
1
 40
1
 40
1
 40
1
 10
203.398084
 20
596.015535
 30
0.0
 10
195.971794
 20
593.220285
 30
0.0
 10
196.661684
 20
593.385956
 30
0.0
 10
195.845695
 20
594.201937
 30
0.0
  0
LWPOLYLINE
  5
2a3
100
AcDbEntity
  8
Layer_1
 62
7
100
AcDbPolyline
 90
1
 70
1
 10
317.079099
 20
597.145156
 30
0.0
  0
SPLINE
  5
2a4
100
AcDbEntity
  8
Layer_1
 62
7
100
AcDbSpline
 70
8
 71
3
 72
8
 73
4
 74
0
 40
0
 40
0
 40
0
 40
0
 40
1
 40
1
 40
1
 40
1
 10
216.142855
 20
602.040285
 30
0.0
 10
219.717853
 20
602.787087
 30
0.0
 10
225.686614
 20
603.715195
 30
0.0
 10
229.406754
 20
604.102757
 30
0.0
  0
SPLINE
  5
2a5
100
AcDbEntity
  8
Layer_1
 62
7
100
AcDbSpline
 70
8
 71
3
 72
8
 73
4
 74
0
 40
0
 40
0
 40
0
 40
0
 40
1
 40
1
 40
1
 40
1
 10
229.406754
 20
604.102757
 30
0.0
 10
233.126904
 20
604.490326
 30
0.0
 10
236.337863
 20
605.091827
 30
0.0
 10
236.542235
 20
605.439437
 30
0.0
  0
SPLINE
  5
2a6
100
AcDbEntity
  8
Layer_1
 62
7
100
AcDbSpline
 70
8
 71
3
 72
8
 73
4
 74
0
 40
0
 40
0
 40
0
 40
0
 40
1
 40
1
 40
1
 40
1
 10
236.542235
 20
605.439437
 30
0.0
 10
237.245845
 20
606.636187
 30
0.0
 10
233.936705
 20
615.297146
 30
0.0
 10
231.707854
 20
618.092396
 30
0.0
  0
SPLINE
  5
2a7
100
AcDbEntity
  8
Layer_1
 62
7
100
AcDbSpline
 70
8
 71
3
 72
8
 73
4
 74
0
 40
0
 40
0
 40
0
 40
0
 40
1
 40
1
 40
1
 40
1
 10
231.707854
 20
618.092396
 30
0.0
 10
229.530433
 20
620.823135
 30
0.0
 10
229.357193
 20
620.862846
 30
0.0
 10
224.718035
 20
619.694697
 30
0.0
  0
SPLINE
  5
2a8
100
AcDbEntity
  8
Layer_1
 62
7
100
AcDbSpline
 70
8
 71
3
 72
8
 73
4
 74
0
 40
0
 40
0
 40
0
 40
0
 40
1
 40
1
 40
1
 40
1
 10
224.718035
 20
619.694697
 30
0.0
 10
222.101654
 20
619.035877
 30
0.0
 10
218.648985
 20
617.526856
 30
0.0
 10
217.045443
 20
616.341305
 30
0.0
  0
SPLINE
  5
2a9
100
AcDbEntity
  8
Layer_1
 62
7
100
AcDbSpline
 70
8
 71
3
 72
8
 73
4
 74
0
 40
0
 40
0
 40
0
 40
0
 40
1
 40
1
 40
1
 40
1
 10
217.045443
 20
616.341305
 30
0.0
 10
214.206834
 20
614.242636
 30
0.0
 10
201.142854
 20
599.362665
 30
0.0
 10
201.142854
 20
598.228146
 30
0.0
  0
SPLINE
  5
2aa
100
AcDbEntity
  8
Layer_1
 62
7
100
AcDbSpline
 70
8
 71
3
 72
8
 73
4
 74
0
 40
0
 40
0
 40
0
 40
0
 40
1
 40
1
 40
1
 40
1
 10
201.142854
 20
598.228146
 30
0.0
 10
201.142854
 20
597.915757
 30
0.0
 10
203.055355
 20
598.340171
 30
0.0
 10
205.392855
 20
599.171315
 30
0.0
  0
SPLINE
  5
2ab
100
AcDbEntity
  8
Layer_1
 62
7
100
AcDbSpline
 70
8
 71
3
 72
8
 73
4
 74
0
 40
0
 40
0
 40
0
 40
0
 40
1
 40
1
 40
1
 40
1
 10
205.392855
 20
599.171315
 30
0.0
 10
207.730355
 20
600.002447
 30
0.0
 10
212.567854
 20
601.293487
 30
0.0
 10
216.142855
 20
602.040285
 30
0.0
  0
LWPOLYLINE
  5
2ac
100
AcDbEntity
  8
Layer_1
 62
7
100
AcDbPolyline
 90
1
 70
1
 10
195.845695
 20
594.201937
 30
0.0
  0
SPLINE
  5
2ad
100
AcDbEntity
  8
Layer_1
 62
7
100
AcDbSpline
 70
8
 71
3
 72
8
 73
4
 74
0
 40
0
 40
0
 40
0
 40
0
 40
1
 40
1
 40
1
 40
1
 10
280.892854
 20
599.132917
 30
0.0
 10
279.476294
 20
600.590775
 30
0.0
 10
280.162865
 20
601.284555
 30
0.0
 10
288.537392
 20
606.857686
 30
0.0
  0
SPLINE
  5
2ae
100
AcDbEntity
  8
Layer_1
 62
7
100
AcDbSpline
 70
8
 71
3
 72
8
 73
4
 74
0
 40
0
 40
0
 40
0
 40
0
 40
1
 40
1
 40
1
 40
1
 10
288.537392
 20
606.857686
 30
0.0
 10
296.284252
 20
612.013107
 30
0.0
 10
297.484072
 20
613.290946
 30
0.0
 10
304.088542
 20
623.419676
 30
0.0
  0
SPLINE
  5
2af
100
AcDbEntity
  8
Layer_1
 62
7
100
AcDbSpline
 70
8
 71
3
 72
8
 73
4
 74
0
 40
0
 40
0
 40
0
 40
0
 40
1
 40
1
 40
1
 40
1
 10
304.088542
 20
623.419676
 30
0.0
 10
312.227291
 20
635.901457
 30
0.0
 10
314.292756
 20
637.281196
 30
0.0
 10
326.352416
 20
638.292237
 30
0.0
  0
SPLINE
  5
2b0
100
AcDbEntity
  8
Layer_1
 62
7
100
AcDbSpline
 70
8
 71
3
 72
8
 73
4
 74
0
 40
0
 40
0
 40
0
 40
0
 40
1
 40
1
 40
1
 40
1
 10
326.352416
 20
638.292237
 30
0.0
 10
331.919688
 20
638.758976
 30
0.0
 10
333.142866
 20
638.596596
 30
0.0
 10
333.142866
 20
637.390797
 30
0.0
  0
SPLINE
  5
2b1
100
AcDbEntity
  8
Layer_1
 62
7
100
AcDbSpline
 70
8
 71
3
 72
8
 73
4
 74
0
 40
0
 40
0
 40
0
 40
0
 40
1
 40
1
 40
1
 40
1
 10
333.142866
 20
637.390797
 30
0.0
 10
333.142866
 20
635.298457
 30
0.0
 10
329.575776
 20
632.340706
 30
0.0
 10
322.642857
 20
628.684427
 30
0.0
  0
SPLINE
  5
2b2
100
AcDbEntity
  8
Layer_1
 62
7
100
AcDbSpline
 70
8
 71
3
 72
8
 73
4
 74
0
 40
0
 40
0
 40
0
 40
0
 40
1
 40
1
 40
1
 40
1
 10
322.642857
 20
628.684427
 30
0.0
 10
317.237924
 20
625.833975
 30
0.0
 10
315.968910
 20
624.494645
 30
0.0
 10
309.847436
 20
615.180016
 30
0.0
  0
SPLINE
  5
2b3
100
AcDbEntity
  8
Layer_1
 62
7
100
AcDbSpline
 70
8
 71
3
 72
8
 73
4
 74
0
 40
0
 40
0
 40
0
 40
0
 40
1
 40
1
 40
1
 40
1
 10
309.847436
 20
615.180016
 30
0.0
 10
304.165786
 20
606.534585
 30
0.0
 10
302.228306
 20
604.391536
 30
0.0
 10
298.025972
 20
602.104357
 30
0.0
  0
SPLINE
  5
2b4
100
AcDbEntity
  8
Layer_1
 62
7
100
AcDbSpline
 70
8
 71
3
 72
8
 73
4
 74
0
 40
0
 40
0
 40
0
 40
0
 40
1
 40
1
 40
1
 40
1
 10
298.025972
 20
602.104357
 30
0.0
 10
293.013581
 20
599.376277
 30
0.0
 10
282.438505
 20
597.542207
 30
0.0
 10
280.892854
 20
599.132917
 30
0.0
  0
LWPOLYLINE
  5
2b5
100
AcDbEntity
  8
Layer_1
 62
7
100
AcDbPolyline
 90
1
 70
1
 10
216.142855
 20
602.040285
 30
0.0
  0
SPLINE
  5
2b6
100
AcDbEntity
  8
Layer_1
 62
7
100
AcDbSpline
 70
8
 71
3
 72
8
 73
4
 74
0
 40
0
 40
0
 40
0
 40
0
 40
1
 40
1
 40
1
 40
1
 10
296.642863
 20
603.855805
 30
0.0
 10
299.522268
 20
605.476525
 30
0.0
 10
302.652680
 20
609.063446
 30
0.0
 10
307.817093
 20
616.659656
 30
0.0
  0
SPLINE
  5
2b7
100
AcDbEntity
  8
Layer_1
 62
7
100
AcDbSpline
 70
8
 71
3
 72
8
 73
4
 74
0
 40
0
 40
0
 40
0
 40
0
 40
1
 40
1
 40
1
 40
1
 10
307.817093
 20
616.659656
 30
0.0
 10
314.173020
 20
626.008357
 30
0.0
 10
315.669317
 20
627.573396
 30
0.0
 10
320.934813
 20
630.379877
 30
0.0
  0
SPLINE
  5
2b8
100
AcDbEntity
  8
Layer_1
 62
7
100
AcDbSpline
 70
8
 71
3
 72
8
 73
4
 74
0
 40
0
 40
0
 40
0
 40
0
 40
1
 40
1
 40
1
 40
1
 10
320.934813
 20
630.379877
 30
0.0
 10
327.260665
 20
633.751526
 30
0.0
 10
330.508233
 20
636.584196
 30
0.0
 10
328.015304
 20
636.555827
 30
0.0
  0
SPLINE
  5
2b9
100
AcDbEntity
  8
Layer_1
 62
7
100
AcDbSpline
 70
8
 71
3
 72
8
 73
4
 74
0
 40
0
 40
0
 40
0
 40
0
 40
1
 40
1
 40
1
 40
1
 10
328.015304
 20
636.555827
 30
0.0
 10
324.496488
 20
636.515830
 30
0.0
 10
314.878791
 20
633.642446
 30
0.0
 10
313.210772
 20
632.132906
 30
0.0
  0
SPLINE
  5
2ba
100
AcDbEntity
  8
Layer_1
 62
7
100
AcDbSpline
 70
8
 71
3
 72
8
 73
4
 74
0
 40
0
 40
0
 40
0
 40
0
 40
1
 40
1
 40
1
 40
1
 10
313.210772
 20
632.132906
 30
0.0
 10
312.186898
 20
631.206306
 30
0.0
 10
308.562576
 20
626.083427
 30
0.0
 10
305.156721
 20
620.748717
 30
0.0
  0
SPLINE
  5
2bb
100
AcDbEntity
  8
Layer_1
 62
7
100
AcDbSpline
 70
8
 71
3
 72
8
 73
4
 74
0
 40
0
 40
0
 40
0
 40
0
 40
1
 40
1
 40
1
 40
1
 10
305.156721
 20
620.748717
 30
0.0
 10
299.755786
 20
612.289015
 30
0.0
 10
298.049017
 20
610.444647
 30
0.0
 10
291.803584
 20
606.319135
 30
0.0
  0
LWPOLYLINE
  5
2bc
100
AcDbEntity
  8
Layer_1
 62
7
100
AcDbPolyline
 90
1
 70
1
 10
280.892854
 20
599.132917
 30
0.0
  0
SPLINE
  5
2bd
100
AcDbEntity
  8
Layer_1
 62
7
100
AcDbSpline
 70
8
 71
3
 72
8
 73
4
 74
0
 40
0
 40
0
 40
0
 40
0
 40
1
 40
1
 40
1
 40
1
 10
288.642841
 20
601.596964
 30
0.0
 10
290.928047
 20
601.600932
 30
0.0
 10
294.357657
 20
602.569823
 30
0.0
 10
296.642863
 20
603.856083
 30
0.0
  0
LWPOLYLINE
  5
2be
100
AcDbEntity
  8
Layer_1
 62
7
100
AcDbPolyline
 90
3
 70
0
 10
291.803584
 20
606.319135
 30
0.0
 10
284.642844
 20
601.589027
 30
0.0
 10
288.642841
 20
601.596964
 30
0.0
  0
SPLINE
  5
2bf
100
AcDbEntity
  8
Layer_1
 62
7
100
AcDbSpline
 70
8
 71
3
 72
8
 73
4
 74
0
 40
0
 40
0
 40
0
 40
0
 40
1
 40
1
 40
1
 40
1
 10
243.995485
 20
604.198335
 30
0.0
 10
241.877684
 20
604.815695
 30
0.0
 10
241.173445
 20
607.571365
 30
0.0
 10
241.156505
 20
615.307255
 30
0.0
  0
SPLINE
  5
2c0
100
AcDbEntity
  8
Layer_1
 62
7
100
AcDbSpline
 70
8
 71
3
 72
8
 73
4
 74
0
 40
0
 40
0
 40
0
 40
0
 40
1
 40
1
 40
1
 40
1
 10
241.156505
 20
615.307255
 30
0.0
 10
241.142899
 20
621.469125
 30
0.0
 10
241.095390
 20
621.574455
 30
0.0
 10
237.142854
 20
624.190147
 30
0.0
  0
SPLINE
  5
2c1
100
AcDbEntity
  8
Layer_1
 62
7
100
AcDbSpline
 70
8
 71
3
 72
8
 73
4
 74
0
 40
0
 40
0
 40
0
 40
0
 40
1
 40
1
 40
1
 40
1
 10
237.142854
 20
624.190147
 30
0.0
 10
234.942854
 20
625.646035
 30
0.0
 10
233.142854
 20
627.250385
 30
0.0
 10
233.142854
 20
627.755355
 30
0.0
  0
SPLINE
  5
2c2
100
AcDbEntity
  8
Layer_1
 62
7
100
AcDbSpline
 70
8
 71
3
 72
8
 73
4
 74
0
 40
0
 40
0
 40
0
 40
0
 40
1
 40
1
 40
1
 40
1
 10
233.142854
 20
627.755355
 30
0.0
 10
233.142854
 20
632.121316
 30
0.0
 10
266.743474
 20
634.526476
 30
0.0
 10
273.074474
 20
630.613706
 30
0.0
  0
SPLINE
  5
2c3
100
AcDbEntity
  8
Layer_1
 62
7
100
AcDbSpline
 70
8
 71
3
 72
8
 73
4
 74
0
 40
0
 40
0
 40
0
 40
0
 40
1
 40
1
 40
1
 40
1
 10
273.074474
 20
630.613706
 30
0.0
 10
275.225153
 20
629.284507
 30
0.0
 10
269.235615
 20
620.102957
 30
0.0
 10
260.704553
 20
611.651486
 30
0.0
  0
SPLINE
  5
2c4
100
AcDbEntity
  8
Layer_1
 62
7
100
AcDbSpline
 70
8
 71
3
 72
8
 73
4
 74
0
 40
0
 40
0
 40
0
 40
0
 40
1
 40
1
 40
1
 40
1
 10
260.704553
 20
611.651486
 30
0.0
 10
254.823934
 20
605.825736
 30
0.0
 10
252.973845
 20
604.577265
 30
0.0
 10
249.642853
 20
604.186886
 30
0.0
  0
SPLINE
  5
2c5
100
AcDbEntity
  8
Layer_1
 62
7
100
AcDbSpline
 70
8
 71
3
 72
8
 73
4
 74
0
 40
0
 40
0
 40
0
 40
0
 40
1
 40
1
 40
1
 40
1
 10
249.642853
 20
604.186886
 30
0.0
 10
247.442854
 20
603.929047
 30
0.0
 10
244.901534
 20
603.934206
 30
0.0
 10
243.995485
 20
604.198225
 30
0.0
  0
LWPOLYLINE
  5
2c6
100
AcDbEntity
  8
Layer_1
 62
7
100
AcDbPolyline
 90
2
 70
0
 10
296.642863
 20
603.856083
 30
0.0
 10
296.642863
 20
603.855805
 30
0.0
  0
SPLINE
  5
2c7
100
AcDbEntity
  8
Layer_1
 62
7
100
AcDbSpline
 70
8
 71
3
 72
8
 73
4
 74
0
 40
0
 40
0
 40
0
 40
0
 40
1
 40
1
 40
1
 40
1
 10
257.344543
 20
611.321445
 30
0.0
 10
264.613465
 20
618.070326
 30
0.0
 10
271.513295
 20
627.601005
 30
0.0
 10
270.131014
 20
628.983286
 30
0.0
  0
SPLINE
  5
2c8
100
AcDbEntity
  8
Layer_1
 62
7
100
AcDbSpline
 70
8
 71
3
 72
8
 73
4
 74
0
 40
0
 40
0
 40
0
 40
0
 40
1
 40
1
 40
1
 40
1
 10
270.131014
 20
628.983286
 30
0.0
 10
268.552604
 20
630.561696
 30
0.0
 10
243.456934
 20
630.340506
 30
0.0
 10
239.650234
 20
628.714647
 30
0.0
  0
LWPOLYLINE
  5
2c9
100
AcDbEntity
  8
Layer_1
 62
7
100
AcDbPolyline
 90
2
 70
0
 10
243.995485
 20
604.198225
 30
0.0
 10
243.995485
 20
604.198335
 30
0.0
  0
SPLINE
  5
2ca
100
AcDbEntity
  8
Layer_1
 62
7
100
AcDbSpline
 70
8
 71
3
 72
8
 73
4
 74
0
 40
0
 40
0
 40
0
 40
0
 40
1
 40
1
 40
1
 40
1
 10
239.366333
 20
625.792918
 30
0.0
 10
242.785295
 20
623.718408
 30
0.0
 10
244.526924
 20
619.596578
 30
0.0
 10
243.657363
 20
615.637508
 30
0.0
  0
SPLINE
  5
2cb
100
AcDbEntity
  8
Layer_1
 62
7
100
AcDbSpline
 70
8
 71
3
 72
8
 73
4
 74
0
 40
0
 40
0
 40
0
 40
0
 40
1
 40
1
 40
1
 40
1
 10
243.657363
 20
615.637508
 30
0.0
 10
243.286985
 20
613.951177
 30
0.0
 10
243.280454
 20
611.221456
 30
0.0
 10
243.642906
 20
609.571457
 30
0.0
  0
SPLINE
  5
2cc
100
AcDbEntity
  8
Layer_1
 62
7
100
AcDbSpline
 70
8
 71
3
 72
8
 73
4
 74
0
 40
0
 40
0
 40
0
 40
0
 40
1
 40
1
 40
1
 40
1
 10
243.642906
 20
609.571457
 30
0.0
 10
244.239857
 20
606.853576
 30
0.0
 10
244.674536
 20
606.571458
 30
0.0
 10
248.265207
 20
606.571458
 30
0.0
  0
SPLINE
  5
2cd
100
AcDbEntity
  8
Layer_1
 62
7
100
AcDbSpline
 70
8
 71
3
 72
8
 73
4
 74
0
 40
0
 40
0
 40
0
 40
0
 40
1
 40
1
 40
1
 40
1
 10
248.265207
 20
606.571458
 30
0.0
 10
251.608745
 20
606.571458
 30
0.0
 10
253.028687
 20
607.314317
 30
0.0
 10
257.344597
 20
611.321457
 30
0.0
  0
LWPOLYLINE
  5
2ce
100
AcDbEntity
  8
Layer_1
 62
7
100
AcDbPolyline
 90
3
 70
0
 10
239.650234
 20
628.714647
 30
0.0
 10
236.657614
 20
627.436468
 30
0.0
 10
239.366333
 20
625.792918
 30
0.0
  0
SPLINE
  5
2cf
100
AcDbEntity
  8
Layer_1
 62
7
100
AcDbSpline
 70
8
 71
3
 72
8
 73
4
 74
0
 40
0
 40
0
 40
0
 40
0
 40
1
 40
1
 40
1
 40
1
 10
262.701153
 20
604.477125
 30
0.0
 10
262.393294
 20
604.975246
 30
0.0
 10
264.344644
 20
606.965666
 30
0.0
 10
267.037483
 20
608.900275
 30
0.0
  0
SPLINE
  5
2d0
100
AcDbEntity
  8
Layer_1
 62
7
100
AcDbSpline
 70
8
 71
3
 72
8
 73
4
 74
0
 40
0
 40
0
 40
0
 40
0
 40
1
 40
1
 40
1
 40
1
 10
267.037483
 20
608.900275
 30
0.0
 10
272.132385
 20
612.560605
 30
0.0
 10
272.681705
 20
613.206445
 30
0.0
 10
279.090624
 20
623.071446
 30
0.0
  0
SPLINE
  5
2d1
100
AcDbEntity
  8
Layer_1
 62
7
100
AcDbSpline
 70
8
 71
3
 72
8
 73
4
 74
0
 40
0
 40
0
 40
0
 40
0
 40
1
 40
1
 40
1
 40
1
 10
279.090624
 20
623.071446
 30
0.0
 10
281.234503
 20
626.371447
 30
0.0
 10
284.331061
 20
629.859447
 30
0.0
 10
285.971896
 20
630.822555
 30
0.0
  0
SPLINE
  5
2d2
100
AcDbEntity
  8
Layer_1
 62
7
100
AcDbSpline
 70
8
 71
3
 72
8
 73
4
 74
0
 40
0
 40
0
 40
0
 40
0
 40
1
 40
1
 40
1
 40
1
 10
285.971896
 20
630.822555
 30
0.0
 10
288.839367
 20
632.505677
 30
0.0
 10
300.646205
 20
634.734757
 30
0.0
 10
301.606668
 20
633.774317
 30
0.0
  0
SPLINE
  5
2d3
100
AcDbEntity
  8
Layer_1
 62
7
100
AcDbSpline
 70
8
 71
3
 72
8
 73
4
 74
0
 40
0
 40
0
 40
0
 40
0
 40
1
 40
1
 40
1
 40
1
 10
301.606668
 20
633.774317
 30
0.0
 10
302.615603
 20
632.765367
 30
0.0
 10
299.891764
 20
629.494775
 30
0.0
 10
295.561049
 20
626.515155
 30
0.0
  0
SPLINE
  5
2d4
100
AcDbEntity
  8
Layer_1
 62
7
100
AcDbSpline
 70
8
 71
3
 72
8
 73
4
 74
0
 40
0
 40
0
 40
0
 40
0
 40
1
 40
1
 40
1
 40
1
 10
295.561049
 20
626.515155
 30
0.0
 10
292.853254
 20
624.652155
 30
0.0
 10
289.266917
 20
620.686945
 30
0.0
 10
286.708507
 20
616.727435
 30
0.0
  0
SPLINE
  5
2d5
100
AcDbEntity
  8
Layer_1
 62
7
100
AcDbSpline
 70
8
 71
3
 72
8
 73
4
 74
0
 40
0
 40
0
 40
0
 40
0
 40
1
 40
1
 40
1
 40
1
 10
286.708507
 20
616.727435
 30
0.0
 10
281.827003
 20
609.172586
 30
0.0
 10
278.879343
 20
606.173165
 30
0.0
 10
274.827753
 20
604.638057
 30
0.0
  0
SPLINE
  5
2d6
100
AcDbEntity
  8
Layer_1
 62
7
100
AcDbSpline
 70
8
 71
3
 72
8
 73
4
 74
0
 40
0
 40
0
 40
0
 40
0
 40
1
 40
1
 40
1
 40
1
 10
274.827753
 20
604.638057
 30
0.0
 10
271.393084
 20
603.336696
 30
0.0
 10
263.470944
 20
603.231565
 30
0.0
 10
262.701153
 20
604.477134
 30
0.0
  0
LWPOLYLINE
  5
2d7
100
AcDbEntity
  8
Layer_1
 62
7
100
AcDbPolyline
 90
1
 70
1
 10
257.344597
 20
611.321457
 30
0.0
  0
SPLINE
  5
2d8
100
AcDbEntity
  8
Layer_1
 62
7
100
AcDbSpline
 70
8
 71
3
 72
8
 73
4
 74
0
 40
0
 40
0
 40
0
 40
0
 40
1
 40
1
 40
1
 40
1
 10
277.771235
 20
609.101566
 30
0.0
 10
279.664583
 20
610.545696
 30
0.0
 10
282.600865
 20
614.185206
 30
0.0
 10
284.296309
 20
617.189355
 30
0.0
  0
SPLINE
  5
2d9
100
AcDbEntity
  8
Layer_1
 62
7
100
AcDbSpline
 70
8
 71
3
 72
8
 73
4
 74
0
 40
0
 40
0
 40
0
 40
0
 40
1
 40
1
 40
1
 40
1
 10
284.296309
 20
617.189355
 30
0.0
 10
285.991739
 20
620.193506
 30
0.0
 10
289.578274
 20
624.505975
 30
0.0
 10
292.266397
 20
626.772617
 30
0.0
  0
SPLINE
  5
2da
100
AcDbEntity
  8
Layer_1
 62
7
100
AcDbSpline
 70
8
 71
3
 72
8
 73
4
 74
0
 40
0
 40
0
 40
0
 40
0
 40
1
 40
1
 40
1
 40
1
 10
292.266397
 20
626.772617
 30
0.0
 10
294.954491
 20
629.039265
 30
0.0
 10
296.971795
 20
631.075836
 30
0.0
 10
296.749304
 20
631.298347
 30
0.0
  0
SPLINE
  5
2db
100
AcDbEntity
  8
Layer_1
 62
7
100
AcDbSpline
 70
8
 71
3
 72
8
 73
4
 74
0
 40
0
 40
0
 40
0
 40
0
 40
1
 40
1
 40
1
 40
1
 10
296.749304
 20
631.298347
 30
0.0
 10
296.526784
 20
631.520838
 30
0.0
 10
294.386825
 20
631.184309
 30
0.0
 10
291.993789
 20
630.550477
 30
0.0
  0
SPLINE
  5
2dc
100
AcDbEntity
  8
Layer_1
 62
7
100
AcDbSpline
 70
8
 71
3
 72
8
 73
4
 74
0
 40
0
 40
0
 40
0
 40
0
 40
1
 40
1
 40
1
 40
1
 10
291.993789
 20
630.550477
 30
0.0
 10
286.767156
 20
629.166107
 30
0.0
 10
282.783725
 20
625.641616
 30
0.0
 10
279.585184
 20
619.571446
 30
0.0
  0
SPLINE
  5
2dd
100
AcDbEntity
  8
Layer_1
 62
7
100
AcDbSpline
 70
8
 71
3
 72
8
 73
4
 74
0
 40
0
 40
0
 40
0
 40
0
 40
1
 40
1
 40
1
 40
1
 10
279.585184
 20
619.571446
 30
0.0
 10
276.542515
 20
613.797075
 30
0.0
 10
274.472203
 20
611.255656
 30
0.0
 10
270.142855
 20
607.980455
 30
0.0
  0
LWPOLYLINE
  5
2de
100
AcDbEntity
  8
Layer_1
 62
7
100
AcDbPolyline
 90
1
 70
1
 10
262.701153
 20
604.477134
 30
0.0
  0
SPLINE
  5
2df
100
AcDbEntity
  8
Layer_1
 62
7
100
AcDbSpline
 70
8
 71
3
 72
8
 73
4
 74
0
 40
0
 40
0
 40
0
 40
0
 40
1
 40
1
 40
1
 40
1
 10
270.485813
 20
605.904276
 30
0.0
 10
272.599444
 20
606.218655
 30
0.0
 10
275.877884
 20
607.657436
 30
0.0
 10
277.771235
 20
609.101566
 30
0.0
  0
LWPOLYLINE
  5
2e0
100
AcDbEntity
  8
Layer_1
 62
7
100
AcDbPolyline
 90
3
 70
0
 10
270.142855
 20
607.980455
 30
0.0
 10
266.642855
 20
605.332667
 30
0.0
 10
270.485813
 20
605.904276
 30
0.0
  0
SPLINE
  5
2e1
100
AcDbEntity
  8
Layer_1
 62
7
100
AcDbSpline
 70
8
 71
3
 72
8
 73
4
 74
0
 40
0
 40
0
 40
0
 40
0
 40
1
 40
1
 40
1
 40
1
 10
188.142854
 20
630.233586
 30
0.0
 10
188.142854
 20
632.117577
 30
0.0
 10
193.551985
 20
639.726585
 30
0.0
 10
196.264174
 20
641.657835
 30
0.0
  0
SPLINE
  5
2e2
100
AcDbEntity
  8
Layer_1
 62
7
100
AcDbSpline
 70
8
 71
3
 72
8
 73
4
 74
0
 40
0
 40
0
 40
0
 40
0
 40
1
 40
1
 40
1
 40
1
 10
196.264174
 20
641.657835
 30
0.0
 10
199.952955
 20
644.284477
 30
0.0
 10
203.880115
 20
643.482887
 30
0.0
 10
205.755905
 20
639.720417
 30
0.0
  0
SPLINE
  5
2e3
100
AcDbEntity
  8
Layer_1
 62
7
100
AcDbSpline
 70
8
 71
3
 72
8
 73
4
 74
0
 40
0
 40
0
 40
0
 40
0
 40
1
 40
1
 40
1
 40
1
 10
205.755905
 20
639.720417
 30
0.0
 10
207.578594
 20
636.064466
 30
0.0
 10
206.332155
 20
633.899166
 30
0.0
 10
201.112345
 20
631.653667
 30
0.0
  0
SPLINE
  5
2e4
100
AcDbEntity
  8
Layer_1
 62
7
100
AcDbSpline
 70
8
 71
3
 72
8
 73
4
 74
0
 40
0
 40
0
 40
0
 40
0
 40
1
 40
1
 40
1
 40
1
 10
201.112345
 20
631.653667
 30
0.0
 10
196.564323
 20
629.697155
 30
0.0
 10
188.142854
 20
628.775065
 30
0.0
 10
188.142854
 20
630.233586
 30
0.0
  0
LWPOLYLINE
  5
2e5
100
AcDbEntity
  8
Layer_1
 62
7
100
AcDbPolyline
 90
1
 70
1
 10
277.771235
 20
609.101566
 30
0.0
  0
SPLINE
  5
2e6
100
AcDbEntity
  8
Layer_1
 62
7
100
AcDbSpline
 70
8
 71
3
 72
8
 73
4
 74
0
 40
0
 40
0
 40
0
 40
0
 40
1
 40
1
 40
1
 40
1
 10
199.892854
 20
633.544515
 30
0.0
 10
204.588003
 20
635.675726
 30
0.0
 10
205.588834
 20
638.727216
 30
0.0
 10
202.189374
 20
640.546557
 30
0.0
  0
SPLINE
  5
2e7
100
AcDbEntity
  8
Layer_1
 62
7
100
AcDbSpline
 70
8
 71
3
 72
8
 73
4
 74
0
 40
0
 40
0
 40
0
 40
0
 40
1
 40
1
 40
1
 40
1
 10
202.189374
 20
640.546557
 30
0.0
 10
200.590155
 20
641.402427
 30
0.0
 10
199.585783
 20
641.021227
 30
0.0
 10
196.651154
 20
638.444597
 30
0.0
  0
SPLINE
  5
2e8
100
AcDbEntity
  8
Layer_1
 62
7
100
AcDbSpline
 70
8
 71
3
 72
8
 73
4
 74
0
 40
0
 40
0
 40
0
 40
0
 40
1
 40
1
 40
1
 40
1
 10
196.651154
 20
638.444597
 30
0.0
 10
194.679553
 20
636.713507
 30
0.0
 10
192.617793
 20
634.458875
 30
0.0
 10
192.069454
 20
633.434306
 30
0.0
  0
SPLINE
  5
2e9
100
AcDbEntity
  8
Layer_1
 62
7
100
AcDbSpline
 70
8
 71
3
 72
8
 73
4
 74
0
 40
0
 40
0
 40
0
 40
0
 40
1
 40
1
 40
1
 40
1
 10
192.069454
 20
633.434306
 30
0.0
 10
191.231243
 20
631.868085
 30
0.0
 10
191.436375
 20
631.574946
 30
0.0
 10
193.357675
 20
631.593405
 30
0.0
  0
SPLINE
  5
2ea
100
AcDbEntity
  8
Layer_1
 62
7
100
AcDbSpline
 70
8
 71
3
 72
8
 73
4
 74
0
 40
0
 40
0
 40
0
 40
0
 40
1
 40
1
 40
1
 40
1
 10
193.357675
 20
631.593405
 30
0.0
 10
194.614523
 20
631.605594
 30
0.0
 10
197.555355
 20
632.483487
 30
0.0
 10
199.892854
 20
633.544515
 30
0.0
  0
LWPOLYLINE
  5
2eb
100
AcDbEntity
  8
Layer_1
 62
7
100
AcDbPolyline
 90
1
 70
1
 10
188.142854
 20
630.233586
 30
0.0
  0
SPLINE
  5
2ec
100
AcDbEntity
  8
Layer_1
 62
7
100
AcDbSpline
 70
8
 71
3
 72
8
 73
4
 74
0
 40
0
 40
0
 40
0
 40
0
 40
1
 40
1
 40
1
 40
1
 10
211.992055
 20
634.213035
 30
0.0
 10
211.361553
 20
646.164077
 30
0.0
 10
216.077153
 20
651.239195
 30
0.0
 10
226.972553
 20
650.335666
 30
0.0
  0
SPLINE
  5
2ed
100
AcDbEntity
  8
Layer_1
 62
7
100
AcDbSpline
 70
8
 71
3
 72
8
 73
4
 74
0
 40
0
 40
0
 40
0
 40
0
 40
1
 40
1
 40
1
 40
1
 10
226.972553
 20
650.335666
 30
0.0
 10
232.713113
 20
649.859607
 30
0.0
 10
236.576083
 20
647.024865
 30
0.0
 10
235.934855
 20
643.758885
 30
0.0
  0
SPLINE
  5
2ee
100
AcDbEntity
  8
Layer_1
 62
7
100
AcDbSpline
 70
8
 71
3
 72
8
 73
4
 74
0
 40
0
 40
0
 40
0
 40
0
 40
1
 40
1
 40
1
 40
1
 10
235.934855
 20
643.758885
 30
0.0
 10
235.621264
 20
642.161696
 30
0.0
 10
219.444335
 20
633.143316
 30
0.0
 10
214.892855
 20
632.028317
 30
0.0
  0
SPLINE
  5
2ef
100
AcDbEntity
  8
Layer_1
 62
7
100
AcDbSpline
 70
8
 71
3
 72
8
 73
4
 74
0
 40
0
 40
0
 40
0
 40
0
 40
1
 40
1
 40
1
 40
1
 10
214.892855
 20
632.028317
 30
0.0
 10
212.397154
 20
631.416926
 30
0.0
 10
212.128914
 20
631.618957
 30
0.0
 10
211.992055
 20
634.213035
 30
0.0
  0
LWPOLYLINE
  5
2f0
100
AcDbEntity
  8
Layer_1
 62
7
100
AcDbPolyline
 90
1
 70
1
 10
199.892854
 20
633.544515
 30
0.0
  0
SPLINE
  5
2f1
100
AcDbEntity
  8
Layer_1
 62
7
100
AcDbSpline
 70
8
 71
3
 72
8
 73
4
 74
0
 40
0
 40
0
 40
0
 40
0
 40
1
 40
1
 40
1
 40
1
 10
224.642854
 20
638.959946
 30
0.0
 10
233.288663
 20
643.675456
 30
0.0
 10
234.882624
 20
645.959486
 30
0.0
 10
230.650515
 20
647.568536
 30
0.0
  0
SPLINE
  5
2f2
100
AcDbEntity
  8
Layer_1
 62
7
100
AcDbSpline
 70
8
 71
3
 72
8
 73
4
 74
0
 40
0
 40
0
 40
0
 40
0
 40
1
 40
1
 40
1
 40
1
 10
230.650515
 20
647.568536
 30
0.0
 10
224.872024
 20
649.765517
 30
0.0
 10
217.350873
 20
647.518136
 30
0.0
 10
215.281414
 20
642.976206
 30
0.0
  0
SPLINE
  5
2f3
100
AcDbEntity
  8
Layer_1
 62
7
100
AcDbSpline
 70
8
 71
3
 72
8
 73
4
 74
0
 40
0
 40
0
 40
0
 40
0
 40
1
 40
1
 40
1
 40
1
 10
215.281414
 20
642.976206
 30
0.0
 10
213.753385
 20
639.622545
 30
0.0
 10
213.820503
 20
634.568196
 30
0.0
 10
215.392844
 20
634.584056
 30
0.0
  0
SPLINE
  5
2f4
100
AcDbEntity
  8
Layer_1
 62
7
100
AcDbSpline
 70
8
 71
3
 72
8
 73
4
 74
0
 40
0
 40
0
 40
0
 40
0
 40
1
 40
1
 40
1
 40
1
 10
215.392844
 20
634.584056
 30
0.0
 10
216.080345
 20
634.591142
 30
0.0
 10
220.242847
 20
636.560147
 30
0.0
 10
224.642846
 20
638.959946
 30
0.0
  0
LWPOLYLINE
  5
2f5
100
AcDbEntity
  8
Layer_1
 62
7
100
AcDbPolyline
 90
1
 70
1
 10
211.992055
 20
634.213035
 30
0.0
  0
SPLINE
  5
2f6
100
AcDbEntity
  8
Layer_1
 62
7
100
AcDbSpline
 70
8
 71
3
 72
8
 73
4
 74
0
 40
0
 40
0
 40
0
 40
0
 40
1
 40
1
 40
1
 40
1
 10
360.142866
 20
650.629236
 30
0.0
 10
353.267858
 20
651.613907
 30
0.0
 10
347.305351
 20
652.453716
 30
0.0
 10
346.892854
 20
652.495496
 30
0.0
  0
SPLINE
  5
2f7
100
AcDbEntity
  8
Layer_1
 62
7
100
AcDbSpline
 70
8
 71
3
 72
8
 73
4
 74
0
 40
0
 40
0
 40
0
 40
0
 40
1
 40
1
 40
1
 40
1
 10
346.892854
 20
652.495496
 30
0.0
 10
345.362712
 20
652.650466
 30
0.0
 10
346.236832
 20
654.814517
 30
0.0
 10
349.618535
 20
659.243407
 30
0.0
  0
SPLINE
  5
2f8
100
AcDbEntity
  8
Layer_1
 62
7
100
AcDbSpline
 70
8
 71
3
 72
8
 73
4
 74
0
 40
0
 40
0
 40
0
 40
0
 40
1
 40
1
 40
1
 40
1
 10
349.618535
 20
659.243407
 30
0.0
 10
355.961906
 20
667.551047
 30
0.0
 10
355.423663
 20
673.377565
 30
0.0
 10
347.045131
 20
687.101136
 30
0.0
  0
SPLINE
  5
2f9
100
AcDbEntity
  8
Layer_1
 62
7
100
AcDbSpline
 70
8
 71
3
 72
8
 73
4
 74
0
 40
0
 40
0
 40
0
 40
0
 40
1
 40
1
 40
1
 40
1
 10
347.045131
 20
687.101136
 30
0.0
 10
341.549717
 20
696.102375
 30
0.0
 10
340.816989
 20
699.116176
 30
0.0
 10
344.392866
 20
698.010525
 30
0.0
  0
SPLINE
  5
2fa
100
AcDbEntity
  8
Layer_1
 62
7
100
AcDbSpline
 70
8
 71
3
 72
8
 73
4
 74
0
 40
0
 40
0
 40
0
 40
0
 40
1
 40
1
 40
1
 40
1
 10
344.392866
 20
698.010525
 30
0.0
 10
356.930759
 20
694.133816
 30
0.0
 10
372.147080
 20
678.429615
 30
0.0
 10
375.775455
 20
665.621717
 30
0.0
  0
SPLINE
  5
2fb
100
AcDbEntity
  8
Layer_1
 62
7
100
AcDbSpline
 70
8
 71
3
 72
8
 73
4
 74
0
 40
0
 40
0
 40
0
 40
0
 40
1
 40
1
 40
1
 40
1
 10
375.775455
 20
665.621717
 30
0.0
 10
376.640249
 20
662.569067
 30
0.0
 10
378.463294
 20
658.128855
 30
0.0
 10
379.826674
 20
655.754587
 30
0.0
  0
SPLINE
  5
2fc
100
AcDbEntity
  8
Layer_1
 62
7
100
AcDbSpline
 70
8
 71
3
 72
8
 73
4
 74
0
 40
0
 40
0
 40
0
 40
0
 40
1
 40
1
 40
1
 40
1
 10
379.826674
 20
655.754587
 30
0.0
 10
384.346460
 20
647.883496
 30
0.0
 10
382.560576
 20
647.418475
 30
0.0
 10
360.142866
 20
650.629236
 30
0.0
  0
LWPOLYLINE
  5
2fd
100
AcDbEntity
  8
Layer_1
 62
7
100
AcDbPolyline
 90
1
 70
1
 10
224.642846
 20
638.959946
 30
0.0
  0
SPLINE
  5
2fe
100
AcDbEntity
  8
Layer_1
 62
7
100
AcDbSpline
 70
8
 71
3
 72
8
 73
4
 74
0
 40
0
 40
0
 40
0
 40
0
 40
1
 40
1
 40
1
 40
1
 10
379.142844
 20
651.111287
 30
0.0
 10
379.142844
 20
651.408197
 30
0.0
 10
378.292507
 20
653.320695
 30
0.0
 10
377.253156
 20
655.361286
 30
0.0
  0
SPLINE
  5
2ff
100
AcDbEntity
  8
Layer_1
 62
7
100
AcDbSpline
 70
8
 71
3
 72
8
 73
4
 74
0
 40
0
 40
0
 40
0
 40
0
 40
1
 40
1
 40
1
 40
1
 10
377.253156
 20
655.361286
 30
0.0
 10
376.213833
 20
657.401876
 30
0.0
 10
374.651575
 20
661.472717
 30
0.0
 10
373.781480
 20
664.407595
 30
0.0
  0
SPLINE
  5
300
100
AcDbEntity
  8
Layer_1
 62
7
100
AcDbSpline
 70
8
 71
3
 72
8
 73
4
 74
0
 40
0
 40
0
 40
0
 40
0
 40
1
 40
1
 40
1
 40
1
 10
373.781480
 20
664.407595
 30
0.0
 10
371.771745
 20
671.186585
 30
0.0
 10
369.002920
 20
675.693176
 30
0.0
 10
362.680498
 20
682.475797
 30
0.0
  0
SPLINE
  5
301
100
AcDbEntity
  8
Layer_1
 62
7
100
AcDbSpline
 70
8
 71
3
 72
8
 73
4
 74
0
 40
0
 40
0
 40
0
 40
0
 40
1
 40
1
 40
1
 40
1
 10
362.680498
 20
682.475797
 30
0.0
 10
358.074028
 20
687.417576
 30
0.0
 10
346.331594
 20
696.093506
 30
0.0
 10
345.446929
 20
695.208855
 30
0.0
  0
SPLINE
  5
302
100
AcDbEntity
  8
Layer_1
 62
7
100
AcDbSpline
 70
8
 71
3
 72
8
 73
4
 74
0
 40
0
 40
0
 40
0
 40
0
 40
1
 40
1
 40
1
 40
1
 10
345.446929
 20
695.208855
 30
0.0
 10
345.242551
 20
695.004420
 30
0.0
 10
347.435745
 20
690.887466
 30
0.0
 10
350.320819
 20
686.060087
 30
0.0
  0
SPLINE
  5
303
100
AcDbEntity
  8
Layer_1
 62
7
100
AcDbSpline
 70
8
 71
3
 72
8
 73
4
 74
0
 40
0
 40
0
 40
0
 40
0
 40
1
 40
1
 40
1
 40
1
 10
350.320819
 20
686.060087
 30
0.0
 10
354.807666
 20
678.552636
 30
0.0
 10
355.622683
 20
676.399816
 30
0.0
 10
355.955216
 20
671.177186
 30
0.0
  0
SPLINE
  5
304
100
AcDbEntity
  8
Layer_1
 62
7
100
AcDbSpline
 70
8
 71
3
 72
8
 73
4
 74
0
 40
0
 40
0
 40
0
 40
0
 40
1
 40
1
 40
1
 40
1
 10
355.955216
 20
671.177186
 30
0.0
 10
356.314110
 20
665.541156
 30
0.0
 10
356.073704
 20
664.669627
 30
0.0
 10
352.830557
 20
659.850367
 30
0.0
  0
LWPOLYLINE
  5
305
100
AcDbEntity
  8
Layer_1
 62
7
100
AcDbPolyline
 90
1
 70
1
 10
360.142866
 20
650.629236
 30
0.0
  0
SPLINE
  5
306
100
AcDbEntity
  8
Layer_1
 62
7
100
AcDbSpline
 70
8
 71
3
 72
8
 73
4
 74
0
 40
0
 40
0
 40
0
 40
0
 40
1
 40
1
 40
1
 40
1
 10
352.479969
 20
654.059656
 30
0.0
 10
356.253279
 20
653.379965
 30
0.0
 10
374.901534
 20
650.857147
 30
0.0
 10
377.392847
 20
650.689325
 30
0.0
  0
SPLINE
  5
307
100
AcDbEntity
  8
Layer_1
 62
7
100
AcDbSpline
 70
8
 71
3
 72
8
 73
4
 74
0
 40
0
 40
0
 40
0
 40
0
 40
1
 40
1
 40
1
 40
1
 10
377.392847
 20
650.689325
 30
0.0
 10
378.355351
 20
650.624525
 30
0.0
 10
379.142844
 20
650.814389
 30
0.0
 10
379.142844
 20
651.111287
 30
0.0
  0
LWPOLYLINE
  5
308
100
AcDbEntity
  8
Layer_1
 62
7
100
AcDbPolyline
 90
3
 70
0
 10
352.830557
 20
659.850367
 30
0.0
 10
349.317099
 20
654.629386
 30
0.0
 10
352.479969
 20
654.059656
 30
0.0
  0
SPLINE
  5
309
100
AcDbEntity
  8
Layer_1
 62
7
100
AcDbSpline
 70
8
 71
3
 72
8
 73
4
 74
0
 40
0
 40
0
 40
0
 40
0
 40
1
 40
1
 40
1
 40
1
 10
292.546205
 20
655.988726
 30
0.0
 10
290.790935
 20
657.228835
 30
0.0
 10
290.344649
 20
658.903085
 30
0.0
 10
289.805414
 20
666.270746
 30
0.0
  0
SPLINE
  5
30a
100
AcDbEntity
  8
Layer_1
 62
7
100
AcDbSpline
 70
8
 71
3
 72
8
 73
4
 74
0
 40
0
 40
0
 40
0
 40
0
 40
1
 40
1
 40
1
 40
1
 10
289.805414
 20
666.270746
 30
0.0
 10
288.895833
 20
678.698467
 30
0.0
 10
287.914932
 20
681.333956
 30
0.0
 10
280.705453
 20
690.720137
 30
0.0
  0
SPLINE
  5
30b
100
AcDbEntity
  8
Layer_1
 62
7
100
AcDbSpline
 70
8
 71
3
 72
8
 73
4
 74
0
 40
0
 40
0
 40
0
 40
0
 40
1
 40
1
 40
1
 40
1
 10
280.705453
 20
690.720137
 30
0.0
 10
277.190524
 20
695.296307
 30
0.0
 10
274.561475
 20
699.439776
 30
0.0
 10
274.863115
 20
699.927837
 30
0.0
  0
SPLINE
  5
30c
100
AcDbEntity
  8
Layer_1
 62
7
100
AcDbSpline
 70
8
 71
3
 72
8
 73
4
 74
0
 40
0
 40
0
 40
0
 40
0
 40
1
 40
1
 40
1
 40
1
 10
274.863115
 20
699.927837
 30
0.0
 10
275.729944
 20
701.330386
 30
0.0
 10
286.215846
 20
699.707245
 30
0.0
 10
290.894060
 20
697.446377
 30
0.0
  0
SPLINE
  5
30d
100
AcDbEntity
  8
Layer_1
 62
7
100
AcDbSpline
 70
8
 71
3
 72
8
 73
4
 74
0
 40
0
 40
0
 40
0
 40
0
 40
1
 40
1
 40
1
 40
1
 10
290.894060
 20
697.446377
 30
0.0
 10
296.626450
 20
694.676035
 30
0.0
 10
300.572646
 20
689.608687
 30
0.0
 10
303.597666
 20
681.133547
 30
0.0
  0
SPLINE
  5
30e
100
AcDbEntity
  8
Layer_1
 62
7
100
AcDbSpline
 70
8
 71
3
 72
8
 73
4
 74
0
 40
0
 40
0
 40
0
 40
0
 40
1
 40
1
 40
1
 40
1
 10
303.597666
 20
681.133547
 30
0.0
 10
307.478466
 20
670.260767
 30
0.0
 10
308.831528
 20
657.643337
 30
0.0
 10
306.273458
 20
656.181536
 30
0.0
  0
SPLINE
  5
30f
100
AcDbEntity
  8
Layer_1
 62
7
100
AcDbSpline
 70
8
 71
3
 72
8
 73
4
 74
0
 40
0
 40
0
 40
0
 40
0
 40
1
 40
1
 40
1
 40
1
 10
306.273458
 20
656.181536
 30
0.0
 10
305.926611
 20
655.983337
 30
0.0
 10
303.167849
 20
655.525585
 30
0.0
 10
300.142857
 20
655.164295
 30
0.0
  0
SPLINE
  5
310
100
AcDbEntity
  8
Layer_1
 62
7
100
AcDbSpline
 70
8
 71
3
 72
8
 73
4
 74
0
 40
0
 40
0
 40
0
 40
0
 40
1
 40
1
 40
1
 40
1
 10
300.142857
 20
655.164295
 30
0.0
 10
296.051386
 20
654.675625
 30
0.0
 10
294.105912
 20
654.886755
 30
0.0
 10
292.546205
 20
655.988726
 30
0.0
  0
LWPOLYLINE
  5
311
100
AcDbEntity
  8
Layer_1
 62
7
100
AcDbPolyline
 90
1
 70
1
 10
379.142844
 20
651.111287
 30
0.0
  0
SPLINE
  5
312
100
AcDbEntity
  8
Layer_1
 62
7
100
AcDbSpline
 70
8
 71
3
 72
8
 73
4
 74
0
 40
0
 40
0
 40
0
 40
0
 40
1
 40
1
 40
1
 40
1
 10
304.943924
 20
662.730055
 30
0.0
 10
305.619052
 20
673.177445
 30
0.0
 10
298.888243
 20
689.726256
 30
0.0
 10
292.150290
 20
694.185216
 30
0.0
  0
SPLINE
  5
313
100
AcDbEntity
  8
Layer_1
 62
7
100
AcDbSpline
 70
8
 71
3
 72
8
 73
4
 74
0
 40
0
 40
0
 40
0
 40
0
 40
1
 40
1
 40
1
 40
1
 10
292.150290
 20
694.185216
 30
0.0
 10
288.458504
 20
696.628327
 30
0.0
 10
279.142855
 20
698.728037
 30
0.0
 10
279.142855
 20
697.117045
 30
0.0
  0
SPLINE
  5
314
100
AcDbEntity
  8
Layer_1
 62
7
100
AcDbSpline
 70
8
 71
3
 72
8
 73
4
 74
0
 40
0
 40
0
 40
0
 40
0
 40
1
 40
1
 40
1
 40
1
 10
279.142855
 20
697.117045
 30
0.0
 10
279.142855
 20
696.724067
 30
0.0
 10
281.144673
 20
693.853047
 30
0.0
 10
283.591332
 20
690.736995
 30
0.0
  0
SPLINE
  5
315
100
AcDbEntity
  8
Layer_1
 62
7
100
AcDbSpline
 70
8
 71
3
 72
8
 73
4
 74
0
 40
0
 40
0
 40
0
 40
0
 40
1
 40
1
 40
1
 40
1
 10
283.591332
 20
690.736995
 30
0.0
 10
289.280154
 20
683.491745
 30
0.0
 10
290.919600
 20
679.468076
 30
0.0
 10
291.652639
 20
670.952305
 30
0.0
  0
SPLINE
  5
316
100
AcDbEntity
  8
Layer_1
 62
7
100
AcDbSpline
 70
8
 71
3
 72
8
 73
4
 74
0
 40
0
 40
0
 40
0
 40
0
 40
1
 40
1
 40
1
 40
1
 10
291.652639
 20
670.952305
 30
0.0
 10
291.978397
 20
667.167837
 30
0.0
 10
292.471427
 20
662.587217
 30
0.0
 10
292.748258
 20
660.773166
 30
0.0
  0
LWPOLYLINE
  5
317
100
AcDbEntity
  8
Layer_1
 62
7
100
AcDbPolyline
 90
1
 70
1
 10
292.546205
 20
655.988726
 30
0.0
  0
SPLINE
  5
318
100
AcDbEntity
  8
Layer_1
 62
7
100
AcDbSpline
 70
8
 71
3
 72
8
 73
4
 74
0
 40
0
 40
0
 40
0
 40
0
 40
1
 40
1
 40
1
 40
1
 10
315.755943
 20
662.321446
 30
0.0
 10
317.678797
 20
673.192655
 30
0.0
 10
315.420548
 20
680.202527
 30
0.0
 10
305.782016
 20
693.281767
 30
0.0
  0
SPLINE
  5
319
100
AcDbEntity
  8
Layer_1
 62
7
100
AcDbSpline
 70
8
 71
3
 72
8
 73
4
 74
0
 40
0
 40
0
 40
0
 40
0
 40
1
 40
1
 40
1
 40
1
 10
305.782016
 20
693.281767
 30
0.0
 10
303.262781
 20
696.700307
 30
0.0
 10
301.646381
 20
699.764615
 30
0.0
 10
302.186381
 20
700.098347
 30
0.0
  0
SPLINE
  5
31a
100
AcDbEntity
  8
Layer_1
 62
7
100
AcDbSpline
 70
8
 71
3
 72
8
 73
4
 74
0
 40
0
 40
0
 40
0
 40
0
 40
1
 40
1
 40
1
 40
1
 10
302.186381
 20
700.098347
 30
0.0
 10
303.997436
 20
701.217635
 30
0.0
 10
318.585175
 20
698.430577
 30
0.0
 10
324.377178
 20
695.858686
 30
0.0
  0
SPLINE
  5
31b
100
AcDbEntity
  8
Layer_1
 62
7
100
AcDbSpline
 70
8
 71
3
 72
8
 73
4
 74
0
 40
0
 40
0
 40
0
 40
0
 40
1
 40
1
 40
1
 40
1
 10
324.377178
 20
695.858686
 30
0.0
 10
331.067707
 20
692.887796
 30
0.0
 10
338.337921
 20
685.645356
 30
0.0
 10
341.259335
 20
679.041045
 30
0.0
  0
SPLINE
  5
31c
100
AcDbEntity
  8
Layer_1
 62
7
100
AcDbSpline
 70
8
 71
3
 72
8
 73
4
 74
0
 40
0
 40
0
 40
0
 40
0
 40
1
 40
1
 40
1
 40
1
 10
341.259335
 20
679.041045
 30
0.0
 10
342.729524
 20
675.717435
 30
0.0
 10
343.158746
 20
672.867816
 30
0.0
 10
342.938608
 20
667.892517
 30
0.0
  0
LWPOLYLINE
  5
31d
100
AcDbEntity
  8
Layer_1
 62
7
100
AcDbPolyline
 90
5
 70
0
 10
292.748258
 20
660.773166
 30
0.0
 10
293.251606
 20
657.474885
 30
0.0
 10
298.947232
 20
657.773167
 30
0.0
 10
304.642857
 20
658.071445
 30
0.0
 10
304.943924
 20
662.730055
 30
0.0
  0
SPLINE
  5
31e
100
AcDbEntity
  8
Layer_1
 62
7
100
AcDbSpline
 70
8
 71
3
 72
8
 73
4
 74
0
 40
0
 40
0
 40
0
 40
0
 40
1
 40
1
 40
1
 40
1
 10
334.642847
 20
659.447456
 30
0.0
 10
330.242854
 20
658.478696
 30
0.0
 10
324.004252
 20
657.660285
 30
0.0
 10
320.779304
 20
657.628767
 30
0.0
  0
LWPOLYLINE
  5
31f
100
AcDbEntity
  8
Layer_1
 62
7
100
AcDbPolyline
 90
3
 70
0
 10
342.938608
 20
667.892517
 30
0.0
 10
342.642841
 20
661.208825
 30
0.0
 10
334.642847
 20
659.447456
 30
0.0
  0
LWPOLYLINE
  5
320
100
AcDbEntity
  8
Layer_1
 62
7
100
AcDbPolyline
 90
4
 70
0
 10
320.779304
 20
657.628767
 30
0.0
 10
314.915754
 20
657.571479
 30
0.0
 10
315.755943
 20
662.321480
 30
0.0
 10
315.755943
 20
662.321446
 30
0.0
  0
SPLINE
  5
321
100
AcDbEntity
  8
Layer_1
 62
7
100
AcDbSpline
 70
8
 71
3
 72
8
 73
4
 74
0
 40
0
 40
0
 40
0
 40
0
 40
1
 40
1
 40
1
 40
1
 10
340.953279
 20
667.440437
 30
0.0
 10
341.642098
 20
676.872935
 30
0.0
 10
335.121959
 20
687.557716
 30
0.0
 10
325.498252
 20
692.767137
 30
0.0
  0
SPLINE
  5
322
100
AcDbEntity
  8
Layer_1
 62
7
100
AcDbSpline
 70
8
 71
3
 72
8
 73
4
 74
0
 40
0
 40
0
 40
0
 40
0
 40
1
 40
1
 40
1
 40
1
 10
325.498252
 20
692.767137
 30
0.0
 10
320.853855
 20
695.281215
 30
0.0
 10
309.470513
 20
698.196356
 30
0.0
 10
307.273833
 20
697.434197
 30
0.0
  0
SPLINE
  5
323
100
AcDbEntity
  8
Layer_1
 62
7
100
AcDbSpline
 70
8
 71
3
 72
8
 73
4
 74
0
 40
0
 40
0
 40
0
 40
0
 40
1
 40
1
 40
1
 40
1
 10
307.273833
 20
697.434197
 30
0.0
 10
306.698825
 20
697.234694
 30
0.0
 10
308.391024
 20
693.696447
 30
0.0
 10
311.034331
 20
689.571445
 30
0.0
  0
SPLINE
  5
324
100
AcDbEntity
  8
Layer_1
 62
7
100
AcDbSpline
 70
8
 71
3
 72
8
 73
4
 74
0
 40
0
 40
0
 40
0
 40
0
 40
1
 40
1
 40
1
 40
1
 10
311.034331
 20
689.571445
 30
0.0
 10
318.050702
 20
678.622005
 30
0.0
 10
319.536000
 20
674.066877
 30
0.0
 10
318.683991
 20
666.111036
 30
0.0
  0
LWPOLYLINE
  5
325
100
AcDbEntity
  8
Layer_1
 62
7
100
AcDbPolyline
 90
3
 70
0
 10
332.642863
 20
661.411616
 30
0.0
 10
340.642857
 20
663.189375
 30
0.0
 10
340.953279
 20
667.440437
 30
0.0
  0
SPLINE
  5
326
100
AcDbEntity
  8
Layer_1
 62
7
100
AcDbSpline
 70
8
 71
3
 72
8
 73
4
 74
0
 40
0
 40
0
 40
0
 40
0
 40
1
 40
1
 40
1
 40
1
 10
321.313266
 20
659.602655
 30
0.0
 10
323.144532
 20
659.619947
 30
0.0
 10
328.242841
 20
660.433856
 30
0.0
 10
332.642863
 20
661.411616
 30
0.0
  0
LWPOLYLINE
  5
327
100
AcDbEntity
  8
Layer_1
 62
7
100
AcDbPolyline
 90
3
 70
0
 10
318.683991
 20
666.111036
 30
0.0
 10
317.983663
 20
659.571446
 30
0.0
 10
321.313266
 20
659.602655
 30
0.0
  0
LWPOLYLINE
  5
328
100
AcDbEntity
  8
Layer_1
 62
7
100
AcDbPolyline
 90
1
 70
1
 10
332.642863
 20
661.411616
 30
0.0
  0
ENDSEC
  0
SECTION
  2
OBJECTS
  0
DICTIONARY
  5
C
330
0
100
AcDbDictionary
  3
ACAD_GROUP
350
D
  3
ACAD_MLINESTYLE
350
17
  0
DICTIONARY
  5
D
330
C
100
AcDbDictionary
  0
DICTIONARY
  5
1A
330
C
100
AcDbDictionary
  0
DICTIONARY
  5
17
330
C
100
AcDbDictionary
  3
STANDARD
350
18
  0
DICTIONARY
  5
19
330
C
100
AcDbDictionary
  0
ENDSEC
  0
EOF
