  0
SECTION
  2
HEADER
  9
$ACADVER
  1
AC1024
  9
$ACADMAINTVER
 70
     6
  9
$DWGCODEPAGE
  3
ANSI_1252
  9
$INSBASE
 10
0.0
 20
0.0
 30
0.0
  9
$EXTMIN
 10
1.000000000000000E+20
 20
1.000000000000000E+20
 30
1.000000000000000E+20
  9
$EXTMAX
 10
-1.000000000000000E+20
 20
-1.000000000000000E+20
 30
-1.000000000000000E+20
  9
$LIMMIN
 10
0.0
 20
0.0
  9
$LIMMAX
 10
12.0
 20
9.0
  9
$ORTHOMODE
 70
     0
  9
$REGENMODE
 70
     1
  9
$FILLMODE
 70
     1
  9
$QTEXTMODE
 70
     0
  9
$MIRRTEXT
 70
     1
  9
$LTSCALE
 40
1.0
  9
$ATTMODE
 70
     1
  9
$TEXTSIZE
 40
0.2
  9
$TRACEWID
 40
0.05
  9
$TEXTSTYLE
  7
Standard
  9
$CLAYER
  8
0
  9
$CELTYPE
  6
ByLayer
  9
$CECOLOR
 62
   256
  9
$CELTSCALE
 40
1.0
  9
$DISPSILH
 70
     0
  9
$DIMSCALE
 40
1.0
  9
$DIMASZ
 40
0.18
  9
$DIMEXO
 40
0.0625
  9
$DIMDLI
 40
0.38
  9
$DIMRND
 40
0.0
  9
$DIMDLE
 40
0.0
  9
$DIMEXE
 40
0.18
  9
$DIMTP
 40
0.0
  9
$DIMTM
 40
0.0
  9
$DIMTXT
 40
0.18
  9
$DIMCEN
 40
0.09
  9
$DIMTSZ
 40
0.0
  9
$DIMTOL
 70
     0
  9
$DIMLIM
 70
     0
  9
$DIMTIH
 70
     1
  9
$DIMTOH
 70
     1
  9
$DIMSE1
 70
     0
  9
$DIMSE2
 70
     0
  9
$DIMTAD
 70
     0
  9
$DIMZIN
 70
     0
  9
$DIMBLK
  1

  9
$DIMASO
 70
     1
  9
$DIMSHO
 70
     1
  9
$DIMPOST
  1

  9
$DIMAPOST
  1

  9
$DIMALT
 70
     0
  9
$DIMALTD
 70
     2
  9
$DIMALTF
 40
25.4
  9
$DIMLFAC
 40
1.0
  9
$DIMTOFL
 70
     0
  9
$DIMTVP
 40
0.0
  9
$DIMTIX
 70
     0
  9
$DIMSOXD
 70
     0
  9
$DIMSAH
 70
     0
  9
$DIMBLK1
  1

  9
$DIMBLK2
  1

  9
$DIMSTYLE
  2
Standard
  9
$DIMCLRD
 70
     0
  9
$DIMCLRE
 70
     0
  9
$DIMCLRT
 70
     0
  9
$DIMTFAC
 40
1.0
  9
$DIMGAP
 40
0.09
  9
$DIMJUST
 70
     0
  9
$DIMSD1
 70
     0
  9
$DIMSD2
 70
     0
  9
$DIMTOLJ
 70
     1
  9
$DIMTZIN
 70
     0
  9
$DIMALTZ
 70
     0
  9
$DIMALTTZ
 70
     0
  9
$DIMUPT
 70
     0
  9
$DIMDEC
 70
     4
  9
$DIMTDEC
 70
     4
  9
$DIMALTU
 70
     2
  9
$DIMALTTD
 70
     2
  9
$DIMTXSTY
  7
Standard
  9
$DIMAUNIT
 70
     0
  9
$DIMADEC
 70
     0
  9
$DIMALTRND
 40
0.0
  9
$DIMAZIN
 70
     0
  9
$DIMDSEP
 70
    46
  9
$DIMATFIT
 70
     3
  9
$DIMFRAC
 70
     0
  9
$DIMLDRBLK
  1

  9
$DIMLUNIT
 70
     2
  9
$DIMLWD
 70
    -2
  9
$DIMLWE
 70
    -2
  9
$DIMTMOVE
 70
     0
  9
$DIMFXL
 40
1.0
  9
$DIMFXLON
 70
     0
  9
$DIMJOGANG
 40
0.7853981633974483
  9
$DIMTFILL
 70
     0
  9
$DIMTFILLCLR
 70
     0
  9
$DIMARCSYM
 70
     0
  9
$DIMLTYPE
  6

  9
$DIMLTEX1
  6

  9
$DIMLTEX2
  6

  9
$DIMTXTDIRECTION
 70
     0
  9
$LUNITS
 70
     2
  9
$LUPREC
 70
     4
  9
$SKETCHINC
 40
0.1
  9
$FILLETRAD
 40
0.5
  9
$AUNITS
 70
     0
  9
$AUPREC
 70
     0
  9
$MENU
  1
.
  9
$ELEVATION
 40
0.0
  9
$PELEVATION
 40
0.0
  9
$THICKNESS
 40
0.0
  9
$LIMCHECK
 70
     0
  9
$CHAMFERA
 40
0.5
  9
$CHAMFERB
 40
0.5
  9
$CHAMFERC
 40
1.0
  9
$CHAMFERD
 40
0.0
  9
$SKPOLY
 70
     0
  9
$TDCREATE
 40
2459044.418674086
  9
$TDUCREATE
 40
2459044.335340752
  9
$TDUPDATE
 40
2459044.418675625
  9
$TDUUPDATE
 40
2459044.335342292
  9
$TDINDWG
 40
0.0000000116
  9
$TDUSRTIMER
 40
0.0000000116
  9
$USRTIMER
 70
     1
  9
$ANGBASE
 50
0.0
  9
$ANGDIR
 70
     0
  9
$PDMODE
 70
     0
  9
$PDSIZE
 40
0.0
  9
$PLINEWID
 40
0.0
  9
$SPLFRAME
 70
     0
  9
$SPLINETYPE
 70
     6
  9
$SPLINESEGS
 70
     8
  9
$HANDSEED
  5
A1
  9
$SURFTAB1
 70
     6
  9
$SURFTAB2
 70
     6
  9
$SURFTYPE
 70
     6
  9
$SURFU
 70
     6
  9
$SURFV
 70
     6
  9
$UCSBASE
  2

  9
$UCSNAME
  2

  9
$UCSORG
 10
0.0
 20
0.0
 30
0.0
  9
$UCSXDIR
 10
1.0
 20
0.0
 30
0.0
  9
$UCSYDIR
 10
0.0
 20
1.0
 30
0.0
  9
$UCSORTHOREF
  2

  9
$UCSORTHOVIEW
 70
     0
  9
$UCSORGTOP
 10
0.0
 20
0.0
 30
0.0
  9
$UCSORGBOTTOM
 10
0.0
 20
0.0
 30
0.0
  9
$UCSORGLEFT
 10
0.0
 20
0.0
 30
0.0
  9
$UCSORGRIGHT
 10
0.0
 20
0.0
 30
0.0
  9
$UCSORGFRONT
 10
0.0
 20
0.0
 30
0.0
  9
$UCSORGBACK
 10
0.0
 20
0.0
 30
0.0
  9
$PUCSBASE
  2

  9
$PUCSNAME
  2

  9
$PUCSORG
 10
0.0
 20
0.0
 30
0.0
  9
$PUCSXDIR
 10
1.0
 20
0.0
 30
0.0
  9
$PUCSYDIR
 10
0.0
 20
1.0
 30
0.0
  9
$PUCSORTHOREF
  2

  9
$PUCSORTHOVIEW
 70
     0
  9
$PUCSORGTOP
 10
0.0
 20
0.0
 30
0.0
  9
$PUCSORGBOTTOM
 10
0.0
 20
0.0
 30
0.0
  9
$PUCSORGLEFT
 10
0.0
 20
0.0
 30
0.0
  9
$PUCSORGRIGHT
 10
0.0
 20
0.0
 30
0.0
  9
$PUCSORGFRONT
 10
0.0
 20
0.0
 30
0.0
  9
$PUCSORGBACK
 10
0.0
 20
0.0
 30
0.0
  9
$USERI1
 70
     0
  9
$USERI2
 70
     0
  9
$USERI3
 70
     0
  9
$USERI4
 70
     0
  9
$USERI5
 70
     0
  9
$USERR1
 40
0.0
  9
$USERR2
 40
0.0
  9
$USERR3
 40
0.0
  9
$USERR4
 40
0.0
  9
$USERR5
 40
0.0
  9
$WORLDVIEW
 70
     1
  9
$SHADEDGE
 70
     3
  9
$SHADEDIF
 70
    70
  9
$TILEMODE
 70
     1
  9
$MAXACTVP
 70
    64
  9
$PINSBASE
 10
0.0
 20
0.0
 30
0.0
  9
$PLIMCHECK
 70
     0
  9
$PEXTMIN
 10
1.000000000000000E+20
 20
1.000000000000000E+20
 30
1.000000000000000E+20
  9
$PEXTMAX
 10
-1.000000000000000E+20
 20
-1.000000000000000E+20
 30
-1.000000000000000E+20
  9
$PLIMMIN
 10
0.0
 20
0.0
  9
$PLIMMAX
 10
12.0
 20
9.0
  9
$UNITMODE
 70
     0
  9
$VISRETAIN
 70
     1
  9
$PLINEGEN
 70
     0
  9
$PSLTSCALE
 70
     1
  9
$TREEDEPTH
 70
  3020
  9
$CMLSTYLE
  2
Standard
  9
$CMLJUST
 70
     0
  9
$CMLSCALE
 40
1.0
  9
$PROXYGRAPHICS
 70
     1
  9
$MEASUREMENT
 70
     0
  9
$CELWEIGHT
370
    -1
  9
$ENDCAPS
280
     0
  9
$JOINSTYLE
280
     0
  9
$LWDISPLAY
290
     1
  9
$INSUNITS
 70
     1
  9
$HYPERLINKBASE
  1

  9
$STYLESHEET
  1

  9
$XEDIT
290
     1
  9
$CEPSNTYPE
380
     0
  9
$PSTYLEMODE
290
     1
  9
$FINGERPRINTGUID
  2
{68410F88-E32F-4F2A-BFF7-984B738AEF47}
  9
$VERSIONGUID
  2
{FAEB1C32-E019-11D5-929B-00C0DF256EC4}
  9
$EXTNAMES
290
     1
  9
$PSVPSCALE
 40
0.0
  9
$OLESTARTUP
290
     0
  9
$SORTENTS
280
   127
  9
$INDEXCTL
280
     0
  9
$HIDETEXT
280
     1
  9
$XCLIPFRAME
280
     2
  9
$HALOGAP
280
     0
  9
$OBSCOLOR
 70
   257
  9
$OBSLTYPE
280
     0
  9
$INTERSECTIONDISPLAY
280
     0
  9
$INTERSECTIONCOLOR
 70
   257
  9
$DIMASSOC
280
     2
  9
$PROJECTNAME
  1

  9
$CAMERADISPLAY
290
     0
  9
$LENSLENGTH
 40
50.0
  9
$CAMERAHEIGHT
 40
0.0
  9
$STEPSPERSEC
 40
2.0
  9
$STEPSIZE
 40
6.0
  9
$3DDWFPREC
 40
2.0
  9
$PSOLWIDTH
 40
0.25
  9
$PSOLHEIGHT
 40
4.0
  9
$LOFTANG1
 40
1.570796326794897
  9
$LOFTANG2
 40
1.570796326794897
  9
$LOFTMAG1
 40
0.0
  9
$LOFTMAG2
 40
0.0
  9
$LOFTPARAM
 70
     7
  9
$LOFTNORMALS
280
     1
  9
$LATITUDE
 40
37.795
  9
$LONGITUDE
 40
-122.394
  9
$NORTHDIRECTION
 40
0.0
  9
$TIMEZONE
 70
 -8000
  9
$LIGHTGLYPHDISPLAY
280
     1
  9
$TILEMODELIGHTSYNCH
280
     1
  9
$CMATERIAL
347
3C
  9
$SOLIDHIST
280
     1
  9
$SHOWHIST
280
     1
  9
$DWFFRAME
280
     2
  9
$DGNFRAME
280
     2
  9
$REALWORLDSCALE
290
     1
  9
$INTERFERECOLOR
 62
   256
  9
$CSHADOW
280
     0
  9
$SHADOWPLANELOCATION
 40
0.0
  0
ENDSEC
  0
SECTION
  2
CLASSES
  0
CLASS
  1
ACDBDICTIONARYWDFLT
  2
AcDbDictionaryWithDefault
  3
ObjectDBX Classes
 90
        0
 91
        4
280
     0
281
     0
  0
CLASS
  1
VISUALSTYLE
  2
AcDbVisualStyle
  3
ObjectDBX Classes
 90
     4095
 91
        4
280
     0
281
     0
  0
CLASS
  1
MATERIAL
  2
AcDbMaterial
  3
ObjectDBX Classes
 90
     1153
 91
        4
280
     0
281
     0
  0
CLASS
  1
SUN
  2
AcDbSun
  3
SCENEOE
 90
     1024
 91
        4
280
     0
281
     0
  0
ENDSEC
  0
SECTION
  2
TABLES
  0
TABLE
  2
VPORT
  5
8
330
0
100
AcDbSymbolTable
 70
     1
  0
VPORT
  5
29
330
8
100
AcDbSymbolTableRecord
100
AcDbViewportTableRecord
  2
*Active
 70
     0
 10
0.0
 20
0.0
 11
1.0
 21
1.0
 12
0.0
 22
0.0
 13
0.0
 23
0.0
 14
0.5
 24
0.5
 15
0.5
 25
0.5
 16
0.0
 26
0.0
 36
1.0
 17
105.0007777515277
 27
-148.5000416295416
 37
0.0
 40
297.0000832590831
 41
0.7070757462376333
 42
50.0
 43
0.0
 44
0.0
 50
0.0
 51
0.0
 71
     0
 72
   100
 73
     1
 74
     3
 75
     0
 76
     0
 77
     0
 78
     0
281
     0
 65
     1
110
0.0
120
0.0
130
0.0
111
1.0
121
0.0
131
0.0
112
0.0
122
1.0
132
0.0
 79
     0
146
0.0
 60
     3
 61
     5
292
     1
282
     1
141
0.0
142
0.0
 63
   250
361
3F
  0
ENDTAB
  0
TABLE
  2
LTYPE
  5
5
330
0
100
AcDbSymbolTable
 70
     1
  0
LTYPE
  5
14
330
5
100
AcDbSymbolTableRecord
100
AcDbLinetypeTableRecord
  2
ByBlock
 70
     0
  3

 72
    65
 73
     0
 40
0.0
  0
LTYPE
  5
15
330
5
100
AcDbSymbolTableRecord
100
AcDbLinetypeTableRecord
  2
ByLayer
 70
     0
  3

 72
    65
 73
     0
 40
0.0
  0
LTYPE
  5
16
330
5
100
AcDbSymbolTableRecord
100
AcDbLinetypeTableRecord
  2
Continuous
 70
     0
  3
Solid line
 72
    65
 73
     0
 40
0.0
  0
ENDTAB
  0
TABLE
  2
LAYER
  5
2
330
0
100
AcDbSymbolTable
 70
     2
  0
LAYER
  5
10
330
2
100
AcDbSymbolTableRecord
100
AcDbLayerTableRecord
  2
0
 70
     0
 62
     7
  6
Continuous
370
    -3
390
F
347
3E
  0
LAYER
  5
40
330
2
100
AcDbSymbolTableRecord
100
AcDbLayerTableRecord
  2
Layer 1
 70
     0
 62
     7
  6
Continuous
370
    -3
390
F
347
3E
  0
ENDTAB
  0
TABLE
  2
STYLE
  5
3
330
0
100
AcDbSymbolTable
 70
     1
  0
STYLE
  5
11
330
3
100
AcDbSymbolTableRecord
100
AcDbTextStyleTableRecord
  2
Standard
 70
     0
 40
0.0
 41
1.0
 50
0.0
 71
     0
 42
0.2
  3
txt
  4

  0
ENDTAB
  0
TABLE
  2
VIEW
  5
6
330
0
100
AcDbSymbolTable
 70
     0
  0
ENDTAB
  0
TABLE
  2
UCS
  5
7
330
0
100
AcDbSymbolTable
 70
     0
  0
ENDTAB
  0
TABLE
  2
APPID
  5
9
330
0
100
AcDbSymbolTable
 70
     1
  0
APPID
  5
12
330
9
100
AcDbSymbolTableRecord
100
AcDbRegAppTableRecord
  2
ACAD
 70
     0
  0
ENDTAB
  0
TABLE
  2
DIMSTYLE
  5
A
330
0
100
AcDbSymbolTable
 70
     1
100
AcDbDimStyleTable
  0
DIMSTYLE
105
27
330
A
100
AcDbSymbolTableRecord
100
AcDbDimStyleTableRecord
  2
Standard
 70
     0
178
     0
340
11
  0
ENDTAB
  0
TABLE
  2
BLOCK_RECORD
  5
1
330
0
100
AcDbSymbolTable
 70
     5
  0
BLOCK_RECORD
  5
1F
330
1
100
AcDbSymbolTableRecord
100
AcDbBlockTableRecord
  2
*Model_Space
340
22
 70
     0
280
     1
281
     0
  0
BLOCK_RECORD
  5
1B
330
1
100
AcDbSymbolTableRecord
100
AcDbBlockTableRecord
  2
*Paper_Space
340
1E
 70
     0
280
     1
281
     0
  0
BLOCK_RECORD
  5
23
330
1
100
AcDbSymbolTableRecord
100
AcDbBlockTableRecord
  2
*Paper_Space0
340
26
 70
     0
280
     1
281
     0
  0
BLOCK_RECORD
  5
41
330
1
100
AcDbSymbolTableRecord
100
AcDbBlockTableRecord
  2
block 2
340
0
102
{BLKREFS
331
42
102
}
 70
     0
280
     1
281
     0
  0
BLOCK_RECORD
  5
50
330
1
100
AcDbSymbolTableRecord
100
AcDbBlockTableRecord
  2
block 3
340
0
102
{BLKREFS
331
51
102
}
 70
     0
280
     1
281
     0
  0
BLOCK_RECORD
  5
7A
330
1
100
AcDbSymbolTableRecord
100
AcDbBlockTableRecord
  2
block 4
340
0
102
{BLKREFS
331
7B
102
}
 70
     0
280
     1
281
     0
  0
BLOCK_RECORD
  5
8F
330
1
100
AcDbSymbolTableRecord
100
AcDbBlockTableRecord
  2
block 5
340
0
102
{BLKREFS
331
90
102
}
 70
     0
280
     1
281
     0
  0
ENDTAB
  0
ENDSEC
  0
SECTION
  2
BLOCKS
  0
BLOCK
  5
20
330
1F
100
AcDbEntity
  8
0
100
AcDbBlockBegin
  2
*Model_Space
 70
     0
 10
0.0
 20
0.0
 30
0.0
  3
*Model_Space
  1

  0
ENDBLK
  5
21
330
1F
100
AcDbEntity
  8
0
100
AcDbBlockEnd
  0
BLOCK
  5
1C
330
1B
100
AcDbEntity
 67
     1
  8
0
100
AcDbBlockBegin
  2
*Paper_Space
 70
     0
 10
0.0
 20
0.0
 30
0.0
  3
*Paper_Space
  1

  0
ENDBLK
  5
1D
330
1B
100
AcDbEntity
 67
     1
  8
0
100
AcDbBlockEnd
  0
BLOCK
  5
24
330
23
100
AcDbEntity
  8
0
100
AcDbBlockBegin
  2
*Paper_Space0
 70
     0
 10
0.0
 20
0.0
 30
0.0
  3
*Paper_Space0
  1

  0
ENDBLK
  5
25
330
23
100
AcDbEntity
  8
0
100
AcDbBlockEnd
  0
BLOCK
  5
43
330
41
100
AcDbEntity
  8
0
100
AcDbBlockBegin
  2
block 2
 70
     0
 10
0.0
 20
0.0
 30
0.0
  3
block 2
  1

  0
POLYLINE
  5
45
330
41
100
AcDbEntity
  8
Layer 1
 62
   250
420
  2301728
370
    35
100
AcDb2dPolyline
 66
     1
 10
0.0
 20
0.0
 30
0.0
  0
VERTEX
  5
46
330
45
100
AcDbEntity
  8
Layer 1
 62
   250
420
  2301728
370
    35
100
AcDbVertex
100
AcDb2dVertex
 10
120.0008888588886
 20
-199.9438610611253
 30
0.0
  0
VERTEX
  5
47
330
45
100
AcDbEntity
  8
Layer 1
 62
   250
420
  2301728
370
    35
100
AcDbVertex
100
AcDb2dVertex
 10
119.7468888589523
 20
-199.9438610611253
 30
0.0
  0
SEQEND
  5
48
330
45
100
AcDbEntity
  8
Layer 1
 62
   250
420
  2301728
370
    35
  0
POLYLINE
  5
49
330
41
100
AcDbEntity
  8
Layer 1
 62
   250
420
  2301728
370
    35
100
AcDb2dPolyline
 66
     1
 10
0.0
 20
0.0
 30
0.0
  0
VERTEX
  5
4A
330
49
100
AcDbEntity
  8
Layer 1
 62
   250
420
  2301728
370
    35
100
AcDbVertex
100
AcDb2dVertex
 10
90.25466664410305
 20
-199.9438610611253
 30
0.0
  0
VERTEX
  5
4B
330
49
100
AcDbEntity
  8
Layer 1
 62
   250
420
  2301728
370
    35
100
AcDbVertex
100
AcDb2dVertex
 10
90.00066664416647
 20
-199.9438610611253
 30
0.0
  0
SEQEND
  5
4C
330
49
100
AcDbEntity
  8
Layer 1
 62
   250
420
  2301728
370
    35
  0
POLYLINE
  5
4D
330
41
100
AcDbEntity
  8
Layer 1
 62
   250
420
  2301728
370
    35
100
AcDb2dPolyline
 66
     1
 10
0.0
 20
0.0
 30
0.0
  0
VERTEX
  5
4E
330
4D
100
AcDbEntity
  8
Layer 1
 62
   250
420
  2301728
370
    35
100
AcDbVertex
100
AcDb2dVertex
 10
91.46822715116657
 20
-199.9425329762079
 30
0.0
  0
VERTEX
  5
9D
330
4D
100
AcDbEntity
  8
0
100
AcDbVertex
100
AcDb2dVertex
 10
91.46822715116657
 20
-199.9425329762079
 30
0.0
  0
SEQEND
  5
4F
330
4D
100
AcDbEntity
  8
Layer 1
 62
   250
420
  2301728
370
    35
  0
ENDBLK
  5
44
330
41
100
AcDbEntity
  8
0
100
AcDbBlockEnd
  0
BLOCK
  5
52
330
50
100
AcDbEntity
  8
0
100
AcDbBlockBegin
  2
block 3
 70
     0
 10
0.0
 20
0.0
 30
0.0
  3
block 3
  1

  0
POLYLINE
  5
54
330
50
100
AcDbEntity
  8
Layer 1
 62
   250
420
  2301728
370
    35
100
AcDb2dPolyline
 66
     1
 10
0.0
 20
0.0
 30
0.0
  0
VERTEX
  5
55
330
54
100
AcDbEntity
  8
Layer 1
 62
   250
420
  2301728
370
    35
100
AcDbVertex
100
AcDb2dVertex
 10
90.25466664410305
 20
-159.9459230862343
 30
0.0
  0
VERTEX
  5
56
330
54
100
AcDbEntity
  8
Layer 1
 62
   250
420
  2301728
370
    35
100
AcDbVertex
100
AcDb2dVertex
 10
90.00066664416647
 20
-159.9459230862343
 30
0.0
  0
SEQEND
  5
57
330
54
100
AcDbEntity
  8
Layer 1
 62
   250
420
  2301728
370
    35
  0
POLYLINE
  5
58
330
50
100
AcDbEntity
  8
Layer 1
 62
   250
420
  2301728
370
    35
100
AcDb2dPolyline
 66
     1
 10
0.0
 20
0.0
 30
0.0
  0
VERTEX
  5
59
330
58
100
AcDbEntity
  8
Layer 1
 62
   250
420
  2301728
370
    35
100
AcDbVertex
100
AcDb2dVertex
 10
120.0008888588886
 20
-159.9459230862343
 30
0.0
  0
VERTEX
  5
5A
330
58
100
AcDbEntity
  8
Layer 1
 62
   250
420
  2301728
370
    35
100
AcDbVertex
100
AcDb2dVertex
 10
119.7468888589523
 20
-159.9459230862343
 30
0.0
  0
SEQEND
  5
5B
330
58
100
AcDbEntity
  8
Layer 1
 62
   250
420
  2301728
370
    35
  0
POLYLINE
  5
5C
330
50
100
AcDbEntity
  8
Layer 1
 62
   250
420
  2301728
370
    35
100
AcDb2dPolyline
 66
     1
 10
0.0
 20
0.0
 30
0.0
  0
VERTEX
  5
5D
330
5C
100
AcDbEntity
  8
Layer 1
 62
   250
420
  2301728
370
    35
100
AcDbVertex
100
AcDb2dVertex
 10
118.5333333037
 20
-159.9445950019246
 30
0.0
  0
VERTEX
  5
9E
330
5C
100
AcDbEntity
  8
0
100
AcDbVertex
100
AcDb2dVertex
 10
118.5333333037
 20
-159.9445950019246
 30
0.0
  0
SEQEND
  5
5E
330
5C
100
AcDbEntity
  8
Layer 1
 62
   250
420
  2301728
370
    35
  0
SPLINE
  5
5F
330
50
100
AcDbEntity
  8
Layer 1
 62
   250
420
  2301728
370
    35
100
AcDbSpline
210
0.0
220
0.0
230
1.0
 70
    11
 71
     3
 72
    65
 73
    61
 74
     0
 42
0.0000000001
 43
0.0000000001
 12
1.0
 22
0.0
 32
0.0
 13
1.0
 23
0.0
 33
0.0
 40
0.0
 40
0.0
 40
0.0
 40
0.0
 40
1.0
 40
1.0
 40
1.0
 40
2.0
 40
2.0
 40
2.0
 40
3.0
 40
3.0
 40
3.0
 40
4.0
 40
4.0
 40
4.0
 40
5.0
 40
5.0
 40
5.0
 40
6.0
 40
6.0
 40
6.0
 40
7.0
 40
7.0
 40
7.0
 40
8.0
 40
8.0
 40
8.0
 40
9.0
 40
9.0
 40
9.0
 40
10.0
 40
10.0
 40
10.0
 40
11.0
 40
11.0
 40
11.0
 40
12.0
 40
12.0
 40
12.0
 40
13.0
 40
13.0
 40
13.0
 40
14.0
 40
14.0
 40
14.0
 40
15.0
 40
15.0
 40
15.0
 40
16.0
 40
16.0
 40
16.0
 40
17.0
 40
17.0
 40
17.0
 40
18.0
 40
18.0
 40
18.0
 40
19.0
 40
19.0
 40
19.0
 40
20.0
 40
20.0
 40
20.0
 40
20.0
 10
119.746889720226
 20
-159.9459084445783
 30
0.0
 10
119.746889720226
 20
-159.9459084445783
 30
0.0
 10
113.1534721939339
 20
-164.8777564183345
 30
0.0
 10
113.1534721939339
 20
-164.8777564183345
 30
0.0
 10
113.1534721939339
 20
-164.8777564183345
 30
0.0
 10
109.9996380001151
 20
-164.8777564183345
 30
0.0
 10
109.9996380001151
 20
-164.8777564183345
 30
0.0
 10
109.9996380001151
 20
-164.8777564183345
 30
0.0
 10
109.9996380001151
 20
-173.3373606371397
 30
0.0
 10
109.9996380001151
 20
-173.3373606371397
 30
0.0
 10
109.9996380001151
 20
-173.3373606371397
 30
0.0
 10
107.8970746936204
 20
-174.8472598609376
 30
0.0
 10
107.8970746936204
 20
-174.8472598609376
 30
0.0
 10
107.8970746936204
 20
-174.8472598609376
 30
0.0
 10
107.8970746936204
 20
-196.8923397436642
 30
0.0
 10
107.8970746936204
 20
-196.8923397436642
 30
0.0
 10
107.8970746936204
 20
-196.8923397436642
 30
0.0
 10
105.0007829191711
 20
-198.5010055486548
 30
0.0
 10
105.0007829191711
 20
-198.5010055486548
 30
0.0
 10
105.0007829191711
 20
-198.5010055486548
 30
0.0
 10
102.1044696128745
 20
-196.8923397436642
 30
0.0
 10
102.1044696128745
 20
-196.8923397436642
 30
0.0
 10
102.1044696128745
 20
-196.8923397436642
 30
0.0
 10
102.1044696128745
 20
-174.8472598609376
 30
0.0
 10
102.1044696128745
 20
-174.8472598609376
 30
0.0
 10
102.1044696128745
 20
-174.8472598609376
 30
0.0
 10
100.0019063063797
 20
-173.3373606371397
 30
0.0
 10
100.0019063063797
 20
-173.3373606371397
 30
0.0
 10
100.0019063063797
 20
-173.3373606371397
 30
0.0
 10
100.0019063063797
 20
-164.8777564183345
 30
0.0
 10
100.0019063063797
 20
-164.8777564183345
 30
0.0
 10
100.0019063063797
 20
-164.8777564183345
 30
0.0
 10
96.84809364440777
 20
-164.8777564183345
 30
0.0
 10
96.84809364440777
 20
-164.8777564183345
 30
0.0
 10
96.84809364440777
 20
-164.8777564183345
 30
0.0
 10
90.25467611811558
 20
-159.9459084445783
 30
0.0
 10
90.25467611811558
 20
-159.9459084445783
 30
0.0
 10
90.25467611811558
 20
-159.9459084445783
 30
0.0
 10
91.46823253464163
 20
-159.9459084445783
 30
0.0
 10
91.46823253464163
 20
-159.9459084445783
 30
0.0
 10
96.27657383525161
 20
-159.9459084445783
 30
0.0
 10
100.1712542813266
 20
-150.5126341142544
 30
0.0
 10
100.1712542813266
 20
-138.8603953137277
 30
0.0
 10
100.1712542813266
 20
-138.8603953137277
 30
0.0
 10
100.0019063063797
 20
-110.7545742622689
 30
0.0
 10
100.0019063063797
 20
-110.7545742622689
 30
0.0
 10
100.0019063063797
 20
-110.7545742622689
 30
0.0
 10
105.0007829191711
 20
-98.4990777104283
 30
0.0
 10
105.0007829191711
 20
-98.4990777104283
 30
0.0
 10
105.0007829191711
 20
-98.4990777104283
 30
0.0
 10
109.9996380001151
 20
-110.7545742622689
 30
0.0
 10
109.9996380001151
 20
-110.7545742622689
 30
0.0
 10
109.9996380001151
 20
-110.7545742622689
 30
0.0
 10
109.8303115570151
 20
-138.8603953137277
 30
0.0
 10
109.8303115570151
 20
-138.8603953137277
 30
0.0
 10
109.8303115570151
 20
-150.5126341142544
 30
0.0
 10
113.7249704712432
 20
-159.9459084445783
 30
0.0
 10
118.5333333037
 20
-159.9459084445783
 30
0.0
 10
118.5333333037
 20
-159.9459084445783
 30
0.0
 10
119.746889720226
 20
-159.9459084445783
 30
0.0
 10
119.746889720226
 20
-159.9459084445783
 30
0.0
  0
ENDBLK
  5
53
330
50
100
AcDbEntity
  8
0
100
AcDbBlockEnd
  0
BLOCK
  5
7C
330
7A
100
AcDbEntity
  8
0
100
AcDbBlockBegin
  2
block 4
 70
     0
 10
0.0
 20
0.0
 30
0.0
  3
block 4
  1

  0
SPLINE
  5
7E
330
7A
100
AcDbEntity
  8
Layer 1
370
     0
100
AcDbSpline
210
0.0
220
0.0
230
1.0
 70
    11
 71
     3
 72
    29
 73
    25
 74
     0
 42
0.0000000001
 43
0.0000000001
 12
1.0
 22
0.0
 32
0.0
 13
1.0
 23
0.0
 33
0.0
 40
0.0
 40
0.0
 40
0.0
 40
0.0
 40
1.0
 40
1.0
 40
1.0
 40
2.0
 40
2.0
 40
2.0
 40
3.0
 40
3.0
 40
3.0
 40
4.0
 40
4.0
 40
4.0
 40
5.0
 40
5.0
 40
5.0
 40
6.0
 40
6.0
 40
6.0
 40
7.0
 40
7.0
 40
7.0
 40
8.0
 40
8.0
 40
8.0
 40
8.0
 10
105.8729519049554
 20
-196.1444443954083
 30
0.0
 10
105.6572889275787
 20
-196.0176648815512
 30
0.0
 10
103.6729139280748
 20
-194.8456433974692
 30
0.0
 10
103.0255804863964
 20
-194.4349880156274
 30
0.0
 10
103.0255804863964
 20
-194.4349880156274
 30
0.0
 10
103.0255804863964
 20
-194.3929578507073
 30
0.0
 10
103.0255804863964
 20
-194.3929578507073
 30
0.0
 10
103.7914252127674
 20
-193.8851507761815
 30
0.0
 10
105.5811523173547
 20
-192.7468912278549
 30
0.0
 10
105.8223090013222
 20
-192.5691243008161
 30
0.0
 10
105.8223090013222
 20
-192.5691243008161
 30
0.0
 10
106.3173692225526
 20
-193.4069715228288
 30
0.0
 10
106.3173692225526
 20
-193.4069715228288
 30
0.0
 10
106.3173692225526
 20
-193.4069715228288
 30
0.0
 10
105.661423042161
 20
-193.7876545739489
 30
0.0
 10
105.661423042161
 20
-193.7876545739489
 30
0.0
 10
105.661423042161
 20
-193.7876545739489
 30
0.0
 10
105.7334255378028
 20
-195.0613063748458
 30
0.0
 10
105.7334255378028
 20
-195.0613063748458
 30
0.0
 10
105.7926811801491
 20
-195.0950683106012
 30
0.0
 10
106.122721327636
 20
-195.2473415310493
 30
0.0
 10
106.3215033371349
 20
-195.3407036186996
 30
0.0
 10
106.3215033371349
 20
-195.3407036186996
 30
0.0
 10
105.8729519049554
 20
-196.1444443954083
 30
0.0
 10
105.8729519049554
 20
-196.1444443954083
 30
0.0
  0
SPLINE
  5
7F
330
7A
100
AcDbEntity
  8
Layer 1
370
     0
100
AcDbSpline
210
0.0
220
0.0
230
1.0
 70
    11
 71
     3
 72
    14
 73
    10
 74
     0
 42
0.0000000001
 43
0.0000000001
 12
1.0
 22
0.0
 32
0.0
 13
1.0
 23
0.0
 33
0.0
 40
0.0
 40
0.0
 40
0.0
 40
0.0
 40
1.0
 40
1.0
 40
1.0
 40
2.0
 40
2.0
 40
2.0
 40
3.0
 40
3.0
 40
3.0
 40
3.0
 10
105.0690388734723
 20
-194.0753200469673
 30
0.0
 10
104.8278821895048
 20
-194.1938313316599
 30
0.0
 10
104.5274698631911
 20
-194.354717290821
 30
0.0
 10
104.3540093055087
 20
-194.4308539010451
 30
0.0
 10
104.5570976843642
 20
-194.5324842178599
 30
0.0
 10
104.8702568639734
 20
-194.6806233237257
 30
0.0
 10
105.1072794333586
 20
-194.7905218697051
 30
0.0
 10
105.1072794333586
 20
-194.7905218697051
 30
0.0
 10
105.0690388734723
 20
-194.0753200469673
 30
0.0
 10
105.0690388734723
 20
-194.0753200469673
 30
0.0
  0
HATCH
  5
80
330
7A
100
AcDbEntity
  8
Layer 1
 62
   250
420
  2301728
100
AcDbHatch
 10
0.0
 20
0.0
 30
0.0
210
0.0
220
0.0
230
1.0
  2
SOLID
 70
     1
 71
     0
 91
        2
 92
        1
 93
        1
 72
     4
 94
        3
 73
     0
 74
     1
 95
       29
 96
       25
 40
0.0
 40
0.0
 40
0.0
 40
0.0
 40
1.0
 40
1.0
 40
1.0
 40
2.0
 40
2.0
 40
2.0
 40
3.0
 40
3.0
 40
3.0
 40
4.0
 40
4.0
 40
4.0
 40
5.0
 40
5.0
 40
5.0
 40
6.0
 40
6.0
 40
6.0
 40
7.0
 40
7.0
 40
7.0
 40
8.0
 40
8.0
 40
8.0
 40
8.0
 10
105.8729519049554
 20
-196.1444443954083
 10
105.6572889275787
 20
-196.0176648815512
 10
103.6729139280748
 20
-194.8456433974692
 10
103.0255804863964
 20
-194.4349880156274
 10
103.0255804863964
 20
-194.4349880156274
 10
103.0255804863964
 20
-194.3929578507073
 10
103.0255804863964
 20
-194.3929578507073
 10
103.7914252127674
 20
-193.8851507761815
 10
105.5811523173547
 20
-192.7468912278549
 10
105.8223090013222
 20
-192.5691243008161
 10
105.8223090013222
 20
-192.5691243008161
 10
106.3173692225526
 20
-193.4069715228288
 10
106.3173692225526
 20
-193.4069715228288
 10
106.3173692225526
 20
-193.4069715228288
 10
105.661423042161
 20
-193.7876545739489
 10
105.661423042161
 20
-193.7876545739489
 10
105.661423042161
 20
-193.7876545739489
 10
105.7334255378028
 20
-195.0613063748458
 10
105.7334255378028
 20
-195.0613063748458
 10
105.7926811801491
 20
-195.0950683106012
 10
106.122721327636
 20
-195.2473415310493
 10
106.3215033371349
 20
-195.3407036186996
 10
106.3215033371349
 20
-195.3407036186996
 10
105.8729519049554
 20
-196.1444443954083
 10
105.8729519049554
 20
-196.1444443954083
 97
        0
 97
        0
 92
        1
 93
        1
 72
     4
 94
        3
 73
     0
 74
     1
 95
       14
 96
       10
 40
0.0
 40
0.0
 40
0.0
 40
0.0
 40
1.0
 40
1.0
 40
1.0
 40
2.0
 40
2.0
 40
2.0
 40
3.0
 40
3.0
 40
3.0
 40
3.0
 10
105.0690388734723
 20
-194.0753200469673
 10
104.8278821895048
 20
-194.1938313316599
 10
104.5274698631911
 20
-194.354717290821
 10
104.3540093055087
 20
-194.4308539010451
 10
104.5570976843642
 20
-194.5324842178599
 10
104.8702568639734
 20
-194.6806233237257
 10
105.1072794333586
 20
-194.7905218697051
 10
105.1072794333586
 20
-194.7905218697051
 10
105.0690388734723
 20
-194.0753200469673
 10
105.0690388734723
 20
-194.0753200469673
 97
        0
 97
        0
 75
     2
 76
     1
 98
        0
  0
SPLINE
  5
81
330
7A
100
AcDbEntity
  8
Layer 1
370
     0
100
AcDbSpline
210
0.0
220
0.0
230
1.0
 70
    11
 71
     3
 72
    29
 73
    25
 74
     0
 42
0.0000000001
 43
0.0000000001
 12
1.0
 22
0.0
 32
0.0
 13
1.0
 23
0.0
 33
0.0
 40
0.0
 40
0.0
 40
0.0
 40
0.0
 40
1.0
 40
1.0
 40
1.0
 40
2.0
 40
2.0
 40
2.0
 40
3.0
 40
3.0
 40
3.0
 40
4.0
 40
4.0
 40
4.0
 40
5.0
 40
5.0
 40
5.0
 40
6.0
 40
6.0
 40
6.0
 40
7.0
 40
7.0
 40
7.0
 40
8.0
 40
8.0
 40
8.0
 40
8.0
 10
105.0986666946455
 20
-191.2641221310034
 30
0.0
 10
105.4583346633056
 20
-191.2641221310034
 30
0.0
 10
106.101706245176
 20
-191.2517197872565
 30
0.0
 10
106.1861110845646
 20
-191.2472411631257
 30
0.0
 10
106.1861110845646
 20
-191.2472411631257
 30
0.0
 10
106.1861110845646
 20
-192.1867187019533
 30
0.0
 10
106.1861110845646
 20
-192.1867187019533
 30
0.0
 10
106.0297037495342
 20
-192.1822400778225
 30
0.0
 10
105.1875501581649
 20
-192.1781059632402
 30
0.0
 10
105.0945325800632
 20
-192.1781059632402
 30
0.0
 10
105.0945325800632
 20
-192.1781059632402
 30
0.0
 10
104.7052367902299
 20
-192.1781059632402
 30
0.0
 10
104.7052367902299
 20
-192.1781059632402
 30
0.0
 10
104.6418470333013
 20
-192.1781059632402
 30
0.0
 10
103.7194227171257
 20
-192.1867187019533
 30
0.0
 10
103.6305392536063
 20
-192.1867187019533
 30
0.0
 10
103.6305392536063
 20
-192.1867187019533
 30
0.0
 10
103.6305392536063
 20
-191.2472411631257
 30
0.0
 10
103.6305392536063
 20
-191.2472411631257
 30
0.0
 10
103.6982353798914
 20
-191.2517197872565
 30
0.0
 10
104.2778726952847
 20
-191.2641221310034
 30
0.0
 10
104.7095431595865
 20
-191.2641221310034
 30
0.0
 10
104.7095431595865
 20
-191.2641221310034
 30
0.0
 10
105.0986666946455
 20
-191.2641221310034
 30
0.0
 10
105.0986666946455
 20
-191.2641221310034
 30
0.0
  0
HATCH
  5
82
330
7A
100
AcDbEntity
  8
Layer 1
 62
   250
420
  2301728
100
AcDbHatch
 10
0.0
 20
0.0
 30
0.0
210
0.0
220
0.0
230
1.0
  2
SOLID
 70
     1
 71
     0
 91
        1
 92
        1
 93
        1
 72
     4
 94
        3
 73
     0
 74
     1
 95
       29
 96
       25
 40
0.0
 40
0.0
 40
0.0
 40
0.0
 40
1.0
 40
1.0
 40
1.0
 40
2.0
 40
2.0
 40
2.0
 40
3.0
 40
3.0
 40
3.0
 40
4.0
 40
4.0
 40
4.0
 40
5.0
 40
5.0
 40
5.0
 40
6.0
 40
6.0
 40
6.0
 40
7.0
 40
7.0
 40
7.0
 40
8.0
 40
8.0
 40
8.0
 40
8.0
 10
105.0986666946455
 20
-191.2641221310034
 10
105.4583346633056
 20
-191.2641221310034
 10
106.101706245176
 20
-191.2517197872565
 10
106.1861110845646
 20
-191.2472411631257
 10
106.1861110845646
 20
-191.2472411631257
 10
106.1861110845646
 20
-192.1867187019533
 10
106.1861110845646
 20
-192.1867187019533
 10
106.0297037495342
 20
-192.1822400778225
 10
105.1875501581649
 20
-192.1781059632402
 10
105.0945325800632
 20
-192.1781059632402
 10
105.0945325800632
 20
-192.1781059632402
 10
104.7052367902299
 20
-192.1781059632402
 10
104.7052367902299
 20
-192.1781059632402
 10
104.6418470333013
 20
-192.1781059632402
 10
103.7194227171257
 20
-192.1867187019533
 10
103.6305392536063
 20
-192.1867187019533
 10
103.6305392536063
 20
-192.1867187019533
 10
103.6305392536063
 20
-191.2472411631257
 10
103.6305392536063
 20
-191.2472411631257
 10
103.6982353798914
 20
-191.2517197872565
 10
104.2778726952847
 20
-191.2641221310034
 10
104.7095431595865
 20
-191.2641221310034
 10
104.7095431595865
 20
-191.2641221310034
 10
105.0986666946455
 20
-191.2641221310034
 10
105.0986666946455
 20
-191.2641221310034
 97
        0
 97
        0
 75
     2
 76
     1
 98
        0
  0
SPLINE
  5
83
330
7A
100
AcDbEntity
  8
Layer 1
370
     0
100
AcDbSpline
210
0.0
220
0.0
230
1.0
 70
    11
 71
     3
 72
    35
 73
    31
 74
     0
 42
0.0000000001
 43
0.0000000001
 12
1.0
 22
0.0
 32
0.0
 13
1.0
 23
0.0
 33
0.0
 40
0.0
 40
0.0
 40
0.0
 40
0.0
 40
1.0
 40
1.0
 40
1.0
 40
2.0
 40
2.0
 40
2.0
 40
3.0
 40
3.0
 40
3.0
 40
4.0
 40
4.0
 40
4.0
 40
5.0
 40
5.0
 40
5.0
 40
6.0
 40
6.0
 40
6.0
 40
7.0
 40
7.0
 40
7.0
 40
8.0
 40
8.0
 40
8.0
 40
9.0
 40
9.0
 40
9.0
 40
10.0
 40
10.0
 40
10.0
 40
10.0
 10
106.1861110845646
 20
-190.6119655556456
 30
0.0
 10
105.9322075473017
 20
-190.5864718490548
 30
0.0
 10
104.0875311697247
 20
-190.493454270953
 30
0.0
 10
103.609351916372
 20
-190.4552137110668
 30
0.0
 10
103.609351916372
 20
-190.4552137110668
 30
0.0
 10
103.588336833912
 20
-190.3876898395559
 30
0.0
 10
103.588336833912
 20
-190.3876898395559
 30
0.0
 10
103.9393920638589
 20
-189.8461208292746
 30
0.0
 10
104.7644924325762
 20
-188.6654866064795
 30
0.0
 10
104.8490695267391
 20
-188.5852158816732
 30
0.0
 10
104.6544216318225
 20
-188.5852158816732
 30
0.0
 10
103.7702378755331
 20
-188.5938286203863
 30
0.0
 10
103.6136582857285
 20
-188.5893499962554
 30
0.0
 10
103.6136582857285
 20
-188.5893499962554
 30
0.0
 10
103.6305392536063
 20
-187.7601155129558
 30
0.0
 10
103.6305392536063
 20
-187.7601155129558
 30
0.0
 10
104.1509209266532
 20
-187.8111029261375
 30
0.0
 10
105.7251573086382
 20
-187.899986389657
 30
0.0
 10
106.2412326123286
 20
-187.921001472117
 30
0.0
 10
106.2412326123286
 20
-187.921001472117
 30
0.0
 10
106.2581135802063
 20
-187.9885253436279
 30
0.0
 10
106.2581135802063
 20
-187.9885253436279
 30
0.0
 10
106.0255696349519
 20
-188.3778211334611
 30
0.0
 10
105.1198540318798
 20
-189.6259792277671
 30
0.0
 10
104.9929022632483
 20
-189.782731072346
 30
0.0
 10
105.1791096742261
 20
-189.782731072346
 30
0.0
 10
106.1058403597583
 20
-189.782731072346
 30
0.0
 10
106.2116047911554
 20
-189.7782524482152
 30
0.0
 10
106.2116047911554
 20
-189.7782524482152
 30
0.0
 10
106.1861110845646
 20
-190.6119655556456
 30
0.0
 10
106.1861110845646
 20
-190.6119655556456
 30
0.0
  0
HATCH
  5
84
330
7A
100
AcDbEntity
  8
Layer 1
 62
   250
420
  2301728
100
AcDbHatch
 10
0.0
 20
0.0
 30
0.0
210
0.0
220
0.0
230
1.0
  2
SOLID
 70
     1
 71
     0
 91
        1
 92
        1
 93
        1
 72
     4
 94
        3
 73
     0
 74
     1
 95
       35
 96
       31
 40
0.0
 40
0.0
 40
0.0
 40
0.0
 40
1.0
 40
1.0
 40
1.0
 40
2.0
 40
2.0
 40
2.0
 40
3.0
 40
3.0
 40
3.0
 40
4.0
 40
4.0
 40
4.0
 40
5.0
 40
5.0
 40
5.0
 40
6.0
 40
6.0
 40
6.0
 40
7.0
 40
7.0
 40
7.0
 40
8.0
 40
8.0
 40
8.0
 40
9.0
 40
9.0
 40
9.0
 40
10.0
 40
10.0
 40
10.0
 40
10.0
 10
106.1861110845646
 20
-190.6119655556456
 10
105.9322075473017
 20
-190.5864718490548
 10
104.0875311697247
 20
-190.493454270953
 10
103.609351916372
 20
-190.4552137110668
 10
103.609351916372
 20
-190.4552137110668
 10
103.588336833912
 20
-190.3876898395559
 10
103.588336833912
 20
-190.3876898395559
 10
103.9393920638589
 20
-189.8461208292746
 10
104.7644924325762
 20
-188.6654866064795
 10
104.8490695267391
 20
-188.5852158816732
 10
104.6544216318225
 20
-188.5852158816732
 10
103.7702378755331
 20
-188.5938286203863
 10
103.6136582857285
 20
-188.5893499962554
 10
103.6136582857285
 20
-188.5893499962554
 10
103.6305392536063
 20
-187.7601155129558
 10
103.6305392536063
 20
-187.7601155129558
 10
104.1509209266532
 20
-187.8111029261375
 10
105.7251573086382
 20
-187.899986389657
 10
106.2412326123286
 20
-187.921001472117
 10
106.2412326123286
 20
-187.921001472117
 10
106.2581135802063
 20
-187.9885253436279
 10
106.2581135802063
 20
-187.9885253436279
 10
106.0255696349519
 20
-188.3778211334611
 10
105.1198540318798
 20
-189.6259792277671
 10
104.9929022632483
 20
-189.782731072346
 10
105.1791096742261
 20
-189.782731072346
 10
106.1058403597583
 20
-189.782731072346
 10
106.2116047911554
 20
-189.7782524482152
 10
106.2116047911554
 20
-189.7782524482152
 10
106.1861110845646
 20
-190.6119655556456
 10
106.1861110845646
 20
-190.6119655556456
 97
        0
 97
        0
 75
     2
 76
     1
 98
        0
  0
SPLINE
  5
85
330
7A
100
AcDbEntity
  8
Layer 1
370
     0
100
AcDbSpline
210
0.0
220
0.0
230
1.0
 70
    11
 71
     3
 72
    29
 73
    25
 74
     0
 42
0.0000000001
 43
0.0000000001
 12
1.0
 22
0.0
 32
0.0
 13
1.0
 23
0.0
 33
0.0
 40
0.0
 40
0.0
 40
0.0
 40
0.0
 40
1.0
 40
1.0
 40
1.0
 40
2.0
 40
2.0
 40
2.0
 40
3.0
 40
3.0
 40
3.0
 40
4.0
 40
4.0
 40
4.0
 40
5.0
 40
5.0
 40
5.0
 40
6.0
 40
6.0
 40
6.0
 40
7.0
 40
7.0
 40
7.0
 40
8.0
 40
8.0
 40
8.0
 40
8.0
 10
106.2157389057377
 20
-185.1604464597863
 30
0.0
 10
106.2326198736155
 20
-185.2958387123566
 30
0.0
 10
106.2453667269109
 20
-185.4353650795092
 30
0.0
 10
106.2453667269109
 20
-185.6172661211304
 30
0.0
 10
106.2453667269109
 20
-186.8781710687319
 30
0.0
 10
105.661423042161
 20
-187.3604844366668
 30
0.0
 10
105.1622287063483
 20
-187.3604844366668
 30
0.0
 10
104.5657104230773
 20
-187.3604844366668
 30
0.0
 10
103.8124402952274
 20
-186.7637938986216
 30
0.0
 10
103.5755899806165
 20
-185.4353650795092
 30
0.0
 10
103.5755899806165
 20
-185.4353650795092
 30
0.0
 10
104.2863131792236
 20
-185.2662108911834
 30
0.0
 10
104.2863131792236
 20
-185.2662108911834
 30
0.0
 10
104.4175713172116
 20
-186.0530707000145
 30
0.0
 10
104.7348646114031
 20
-186.3744981087883
 30
0.0
 10
105.0690388734723
 20
-186.3744981087883
 30
0.0
 10
105.3484361173261
 20
-186.3744981087883
 30
0.0
 10
105.5473903815993
 20
-186.0826985211877
 30
0.0
 10
105.5473903815993
 20
-185.5707573320796
 30
0.0
 10
105.5473903815993
 20
-185.4143499970492
 30
0.0
 10
105.5387776428861
 20
-185.2913600882258
 30
0.0
 10
105.5305094137215
 20
-185.198342510124
 30
0.0
 10
105.5305094137215
 20
-185.198342510124
 30
0.0
 10
106.2157389057377
 20
-185.1604464597863
 30
0.0
 10
106.2157389057377
 20
-185.1604464597863
 30
0.0
  0
HATCH
  5
86
330
7A
100
AcDbEntity
  8
Layer 1
 62
   250
420
  2301728
100
AcDbHatch
 10
0.0
 20
0.0
 30
0.0
210
0.0
220
0.0
230
1.0
  2
SOLID
 70
     1
 71
     0
 91
        1
 92
        1
 93
        1
 72
     4
 94
        3
 73
     0
 74
     1
 95
       29
 96
       25
 40
0.0
 40
0.0
 40
0.0
 40
0.0
 40
1.0
 40
1.0
 40
1.0
 40
2.0
 40
2.0
 40
2.0
 40
3.0
 40
3.0
 40
3.0
 40
4.0
 40
4.0
 40
4.0
 40
5.0
 40
5.0
 40
5.0
 40
6.0
 40
6.0
 40
6.0
 40
7.0
 40
7.0
 40
7.0
 40
8.0
 40
8.0
 40
8.0
 40
8.0
 10
106.2157389057377
 20
-185.1604464597863
 10
106.2326198736155
 20
-185.2958387123566
 10
106.2453667269109
 20
-185.4353650795092
 10
106.2453667269109
 20
-185.6172661211304
 10
106.2453667269109
 20
-186.8781710687319
 10
105.661423042161
 20
-187.3604844366668
 10
105.1622287063483
 20
-187.3604844366668
 10
104.5657104230773
 20
-187.3604844366668
 10
103.8124402952274
 20
-186.7637938986216
 10
103.5755899806165
 20
-185.4353650795092
 10
103.5755899806165
 20
-185.4353650795092
 10
104.2863131792236
 20
-185.2662108911834
 10
104.2863131792236
 20
-185.2662108911834
 10
104.4175713172116
 20
-186.0530707000145
 10
104.7348646114031
 20
-186.3744981087883
 10
105.0690388734723
 20
-186.3744981087883
 10
105.3484361173261
 20
-186.3744981087883
 10
105.5473903815993
 20
-186.0826985211877
 10
105.5473903815993
 20
-185.5707573320796
 10
105.5473903815993
 20
-185.4143499970492
 10
105.5387776428861
 20
-185.2913600882258
 10
105.5305094137215
 20
-185.198342510124
 10
105.5305094137215
 20
-185.198342510124
 10
106.2157389057377
 20
-185.1604464597863
 10
106.2157389057377
 20
-185.1604464597863
 97
        0
 97
        0
 75
     2
 76
     1
 98
        0
  0
SPLINE
  5
87
330
7A
100
AcDbEntity
  8
Layer 1
370
     0
100
AcDbSpline
210
0.0
220
0.0
230
1.0
 70
    11
 71
     3
 72
    47
 73
    43
 74
     0
 42
0.0000000001
 43
0.0000000001
 12
1.0
 22
0.0
 32
0.0
 13
1.0
 23
0.0
 33
0.0
 40
0.0
 40
0.0
 40
0.0
 40
0.0
 40
1.0
 40
1.0
 40
1.0
 40
2.0
 40
2.0
 40
2.0
 40
3.0
 40
3.0
 40
3.0
 40
4.0
 40
4.0
 40
4.0
 40
5.0
 40
5.0
 40
5.0
 40
6.0
 40
6.0
 40
6.0
 40
7.0
 40
7.0
 40
7.0
 40
8.0
 40
8.0
 40
8.0
 40
9.0
 40
9.0
 40
9.0
 40
10.0
 40
10.0
 40
10.0
 40
11.0
 40
11.0
 40
11.0
 40
12.0
 40
12.0
 40
12.0
 40
13.0
 40
13.0
 40
13.0
 40
14.0
 40
14.0
 40
14.0
 40
14.0
 10
105.0860920961243
 20
-183.7076496936564
 30
0.0
 10
105.2214843486946
 20
-183.7076496936564
 30
0.0
 10
106.1313340663491
 20
-183.6993814644918
 30
0.0
 10
106.1861110845646
 20
-183.6907687257787
 30
0.0
 10
106.1861110845646
 20
-183.6907687257787
 30
0.0
 10
106.1861110845646
 20
-184.6006184434332
 30
0.0
 10
106.1861110845646
 20
-184.6006184434332
 30
0.0
 10
106.101706245176
 20
-184.5837374755555
 30
0.0
 10
105.2511121698678
 20
-184.5878715901378
 30
0.0
 10
105.1749755596438
 20
-184.5878715901378
 30
0.0
 10
105.1749755596438
 20
-184.5878715901378
 30
0.0
 10
104.5910318748939
 20
-184.5878715901378
 30
0.0
 10
104.5910318748939
 20
-184.5878715901378
 30
0.0
 10
104.4809610741402
 20
-184.5878715901378
 30
0.0
 10
103.702541749248
 20
-184.5964843288509
 30
0.0
 10
103.6305392536063
 20
-184.6047525580155
 30
0.0
 10
103.6305392536063
 20
-184.0631835477342
 30
0.0
 10
103.626405139024
 20
-183.5257486520352
 30
0.0
 10
103.6729139280748
 20
-183.1578124542106
 30
0.0
 10
103.7447441689423
 20
-182.5907497373384
 30
0.0
 10
103.9605794010932
 20
-182.28206918186
 30
0.0
 10
104.2906195485801
 20
-182.28206918186
 30
0.0
 10
104.5910318748939
 20
-182.28206918186
 30
0.0
 10
104.819441705566
 20
-182.4553574847681
 30
0.0
 10
105.0099554859003
 20
-182.764382549795
 30
0.0
 10
105.1326008851752
 20
-182.6500053796847
 30
0.0
 10
105.6490206984141
 20
-182.0915554015257
 30
0.0
 10
105.7630533589759
 20
-181.9899250847108
 30
0.0
 10
105.7630533589759
 20
-181.9899250847108
 30
0.0
 10
106.3087564838395
 20
-182.7430229577865
 30
0.0
 10
106.3087564838395
 20
-182.7430229577865
 30
0.0
 10
106.3087564838395
 20
-182.7430229577865
 30
0.0
 10
105.0056491165437
 20
-183.6401258221455
 30
0.0
 10
105.0056491165437
 20
-183.6401258221455
 30
0.0
 10
104.9083251690854
 20
-183.4413438126466
 30
0.0
 10
104.7307304968208
 20
-183.2170680965569
 30
0.0
 10
104.4640801062625
 20
-183.2170680965569
 30
0.0
 10
104.2949259179367
 20
-183.2170680965569
 30
0.0
 10
104.1552272960098
 20
-183.3269666425363
 30
0.0
 10
104.1509209266532
 20
-183.7076496936564
 30
0.0
 10
104.1509209266532
 20
-183.7076496936564
 30
0.0
 10
105.0860920961243
 20
-183.7076496936564
 30
0.0
 10
105.0860920961243
 20
-183.7076496936564
 30
0.0
  0
HATCH
  5
88
330
7A
100
AcDbEntity
  8
Layer 1
 62
   250
420
  2301728
100
AcDbHatch
 10
0.0
 20
0.0
 30
0.0
210
0.0
220
0.0
230
1.0
  2
SOLID
 70
     1
 71
     0
 91
        1
 92
        1
 93
        1
 72
     4
 94
        3
 73
     0
 74
     1
 95
       47
 96
       43
 40
0.0
 40
0.0
 40
0.0
 40
0.0
 40
1.0
 40
1.0
 40
1.0
 40
2.0
 40
2.0
 40
2.0
 40
3.0
 40
3.0
 40
3.0
 40
4.0
 40
4.0
 40
4.0
 40
5.0
 40
5.0
 40
5.0
 40
6.0
 40
6.0
 40
6.0
 40
7.0
 40
7.0
 40
7.0
 40
8.0
 40
8.0
 40
8.0
 40
9.0
 40
9.0
 40
9.0
 40
10.0
 40
10.0
 40
10.0
 40
11.0
 40
11.0
 40
11.0
 40
12.0
 40
12.0
 40
12.0
 40
13.0
 40
13.0
 40
13.0
 40
14.0
 40
14.0
 40
14.0
 40
14.0
 10
105.0860920961243
 20
-183.7076496936564
 10
105.2214843486946
 20
-183.7076496936564
 10
106.1313340663491
 20
-183.6993814644918
 10
106.1861110845646
 20
-183.6907687257787
 10
106.1861110845646
 20
-183.6907687257787
 10
106.1861110845646
 20
-184.6006184434332
 10
106.1861110845646
 20
-184.6006184434332
 10
106.101706245176
 20
-184.5837374755555
 10
105.2511121698678
 20
-184.5878715901378
 10
105.1749755596438
 20
-184.5878715901378
 10
105.1749755596438
 20
-184.5878715901378
 10
104.5910318748939
 20
-184.5878715901378
 10
104.5910318748939
 20
-184.5878715901378
 10
104.4809610741402
 20
-184.5878715901378
 10
103.702541749248
 20
-184.5964843288509
 10
103.6305392536063
 20
-184.6047525580155
 10
103.6305392536063
 20
-184.0631835477342
 10
103.626405139024
 20
-183.5257486520352
 10
103.6729139280748
 20
-183.1578124542106
 10
103.7447441689423
 20
-182.5907497373384
 10
103.9605794010932
 20
-182.28206918186
 10
104.2906195485801
 20
-182.28206918186
 10
104.5910318748939
 20
-182.28206918186
 10
104.819441705566
 20
-182.4553574847681
 10
105.0099554859003
 20
-182.764382549795
 10
105.1326008851752
 20
-182.6500053796847
 10
105.6490206984141
 20
-182.0915554015257
 10
105.7630533589759
 20
-181.9899250847108
 10
105.7630533589759
 20
-181.9899250847108
 10
106.3087564838395
 20
-182.7430229577865
 10
106.3087564838395
 20
-182.7430229577865
 10
106.3087564838395
 20
-182.7430229577865
 10
105.0056491165437
 20
-183.6401258221455
 10
105.0056491165437
 20
-183.6401258221455
 10
104.9083251690854
 20
-183.4413438126466
 10
104.7307304968208
 20
-183.2170680965569
 10
104.4640801062625
 20
-183.2170680965569
 10
104.2949259179367
 20
-183.2170680965569
 10
104.1552272960098
 20
-183.3269666425363
 10
104.1509209266532
 20
-183.7076496936564
 10
104.1509209266532
 20
-183.7076496936564
 10
105.0860920961243
 20
-183.7076496936564
 10
105.0860920961243
 20
-183.7076496936564
 97
        0
 97
        0
 75
     2
 76
     1
 98
        0
  0
SPLINE
  5
89
330
7A
100
AcDbEntity
  8
Layer 1
370
     0
100
AcDbSpline
210
0.0
220
0.0
230
1.0
 70
    11
 71
     3
 72
    29
 73
    25
 74
     0
 42
0.0000000001
 43
0.0000000001
 12
1.0
 22
0.0
 32
0.0
 13
1.0
 23
0.0
 33
0.0
 40
0.0
 40
0.0
 40
0.0
 40
0.0
 40
1.0
 40
1.0
 40
1.0
 40
2.0
 40
2.0
 40
2.0
 40
3.0
 40
3.0
 40
3.0
 40
4.0
 40
4.0
 40
4.0
 40
5.0
 40
5.0
 40
5.0
 40
6.0
 40
6.0
 40
6.0
 40
7.0
 40
7.0
 40
7.0
 40
8.0
 40
8.0
 40
8.0
 40
8.0
 10
105.9198052035548
 20
-182.0095621289768
 30
0.0
 10
105.7375596523851
 20
-181.8951849588665
 30
0.0
 10
104.0494628646126
 20
-180.8630343514857
 30
0.0
 10
103.4994533703925
 20
-180.4737385616524
 30
0.0
 10
103.4994533703925
 20
-180.4737385616524
 30
0.0
 10
103.4994533703925
 20
-180.3934678368461
 30
0.0
 10
103.4994533703925
 20
-180.3934678368461
 30
0.0
 10
104.1509209266532
 20
-179.923556812658
 30
0.0
 10
105.6700357808742
 20
-178.9165554023195
 30
0.0
 10
105.8774305290862
 20
-178.7560139527068
 30
0.0
 10
105.8774305290862
 20
-178.7560139527068
 30
0.0
 10
106.3046223692572
 20
-179.5342610228248
 30
0.0
 10
106.3046223692572
 20
-179.5342610228248
 30
0.0
 10
106.1313340663491
 20
-179.6486381929351
 30
0.0
 10
105.8054280334445
 20
-179.8432860878517
 30
0.0
 10
105.7630533589759
 20
-179.8729139090248
 30
0.0
 10
105.7630533589759
 20
-179.8729139090248
 30
0.0
 10
105.8181748867399
 20
-181.0025607186383
 30
0.0
 10
105.8181748867399
 20
-181.0025607186383
 30
0.0
 10
105.8519368224954
 20
-181.0235758010983
 30
0.0
 10
106.1396022955137
 20
-181.1634466777994
 30
0.0
 10
106.3087564838395
 20
-181.2478515171881
 30
0.0
 10
106.3087564838395
 20
-181.2478515171881
 30
0.0
 10
105.9198052035548
 20
-182.0095621289768
 30
0.0
 10
105.9198052035548
 20
-182.0095621289768
 30
0.0
  0
SPLINE
  5
8A
330
7A
100
AcDbEntity
  8
Layer 1
370
     0
100
AcDbSpline
210
0.0
220
0.0
230
1.0
 70
    11
 71
     3
 72
    14
 73
    10
 74
     0
 42
0.0000000001
 43
0.0000000001
 12
1.0
 22
0.0
 32
0.0
 13
1.0
 23
0.0
 33
0.0
 40
0.0
 40
0.0
 40
0.0
 40
0.0
 40
1.0
 40
1.0
 40
1.0
 40
2.0
 40
2.0
 40
2.0
 40
3.0
 40
3.0
 40
3.0
 40
3.0
 10
105.2383653165724
 20
-180.13095156087
 30
0.0
 10
105.0309705683603
 20
-180.2367159922672
 30
0.0
 10
104.7941202537494
 20
-180.3762423594198
 30
0.0
 10
104.6459811478836
 20
-180.4482448550615
 30
0.0
 10
104.819441705566
 20
-180.537128318581
 30
0.0
 10
105.0690388734723
 20
-180.668386456569
 30
0.0
 10
105.2679931377455
 20
-180.7655381492531
 30
0.0
 10
105.2679931377455
 20
-180.7655381492531
 30
0.0
 10
105.2383653165724
 20
-180.13095156087
 30
0.0
 10
105.2383653165724
 20
-180.13095156087
 30
0.0
  0
HATCH
  5
8B
330
7A
100
AcDbEntity
  8
Layer 1
 62
   250
420
  2301728
100
AcDbHatch
 10
0.0
 20
0.0
 30
0.0
210
0.0
220
0.0
230
1.0
  2
SOLID
 70
     1
 71
     0
 91
        2
 92
        1
 93
        1
 72
     4
 94
        3
 73
     0
 74
     1
 95
       29
 96
       25
 40
0.0
 40
0.0
 40
0.0
 40
0.0
 40
1.0
 40
1.0
 40
1.0
 40
2.0
 40
2.0
 40
2.0
 40
3.0
 40
3.0
 40
3.0
 40
4.0
 40
4.0
 40
4.0
 40
5.0
 40
5.0
 40
5.0
 40
6.0
 40
6.0
 40
6.0
 40
7.0
 40
7.0
 40
7.0
 40
8.0
 40
8.0
 40
8.0
 40
8.0
 10
105.9198052035548
 20
-182.0095621289768
 10
105.7375596523851
 20
-181.8951849588665
 10
104.0494628646126
 20
-180.8630343514857
 10
103.4994533703925
 20
-180.4737385616524
 10
103.4994533703925
 20
-180.4737385616524
 10
103.4994533703925
 20
-180.3934678368461
 10
103.4994533703925
 20
-180.3934678368461
 10
104.1509209266532
 20
-179.923556812658
 10
105.6700357808742
 20
-178.9165554023195
 10
105.8774305290862
 20
-178.7560139527068
 10
105.8774305290862
 20
-178.7560139527068
 10
106.3046223692572
 20
-179.5342610228248
 10
106.3046223692572
 20
-179.5342610228248
 10
106.1313340663491
 20
-179.6486381929351
 10
105.8054280334445
 20
-179.8432860878517
 10
105.7630533589759
 20
-179.8729139090248
 10
105.7630533589759
 20
-179.8729139090248
 10
105.8181748867399
 20
-181.0025607186383
 10
105.8181748867399
 20
-181.0025607186383
 10
105.8519368224954
 20
-181.0235758010983
 10
106.1396022955137
 20
-181.1634466777994
 10
106.3087564838395
 20
-181.2478515171881
 10
106.3087564838395
 20
-181.2478515171881
 10
105.9198052035548
 20
-182.0095621289768
 10
105.9198052035548
 20
-182.0095621289768
 97
        0
 97
        0
 92
        1
 93
        1
 72
     4
 94
        3
 73
     0
 74
     1
 95
       14
 96
       10
 40
0.0
 40
0.0
 40
0.0
 40
0.0
 40
1.0
 40
1.0
 40
1.0
 40
2.0
 40
2.0
 40
2.0
 40
3.0
 40
3.0
 40
3.0
 40
3.0
 10
105.2383653165724
 20
-180.13095156087
 10
105.0309705683603
 20
-180.2367159922672
 10
104.7941202537494
 20
-180.3762423594198
 10
104.6459811478836
 20
-180.4482448550615
 10
104.819441705566
 20
-180.537128318581
 10
105.0690388734723
 20
-180.668386456569
 10
105.2679931377455
 20
-180.7655381492531
 10
105.2679931377455
 20
-180.7655381492531
 10
105.2383653165724
 20
-180.13095156087
 10
105.2383653165724
 20
-180.13095156087
 97
        0
 97
        0
 75
     2
 76
     1
 98
        0
  0
SPLINE
  5
8C
330
7A
100
AcDbEntity
  8
Layer 1
370
     0
100
AcDbSpline
210
0.0
220
0.0
230
1.0
 70
    11
 71
     3
 72
    23
 73
    19
 74
     0
 42
0.0000000001
 43
0.0000000001
 12
1.0
 22
0.0
 32
0.0
 13
1.0
 23
0.0
 33
0.0
 40
0.0
 40
0.0
 40
0.0
 40
0.0
 40
1.0
 40
1.0
 40
1.0
 40
2.0
 40
2.0
 40
2.0
 40
3.0
 40
3.0
 40
3.0
 40
4.0
 40
4.0
 40
4.0
 40
5.0
 40
5.0
 40
5.0
 40
6.0
 40
6.0
 40
6.0
 40
6.0
 10
104.6037787281893
 20
-178.3567273859664
 30
0.0
 10
104.5274698631911
 20
-178.3567273859664
 30
0.0
 10
103.7321695704211
 20
-178.3608615005487
 30
0.0
 10
103.6305392536063
 20
-178.3736083538441
 30
0.0
 10
103.6305392536063
 20
-177.6501383019416
 30
0.0
 10
103.6432861069017
 20
-177.2439615442307
 30
0.0
 10
103.6897948959526
 20
-176.8884276901529
 30
0.0
 10
103.816746664584
 20
-175.8772921652321
 30
0.0
 10
104.3159410003967
 20
-175.6953911236109
 30
0.0
 10
104.6079128427716
 20
-175.6953911236109
 30
0.0
 10
105.7758002122713
 20
-175.6953911236109
 30
0.0
 10
106.2370984977463
 20
-177.116837520825
 30
0.0
 10
106.2029920524423
 20
-178.3777424684264
 30
0.0
 10
106.0379719786988
 20
-178.364995615131
 30
0.0
 10
105.1453477384706
 20
-178.3567273859664
 30
0.0
 10
105.0480237910123
 20
-178.3567273859664
 30
0.0
 10
105.0480237910123
 20
-178.3567273859664
 30
0.0
 10
104.6037787281893
 20
-178.3567273859664
 30
0.0
 10
104.6037787281893
 20
-178.3567273859664
 30
0.0
  0
SPLINE
  5
8D
330
7A
100
AcDbEntity
  8
Layer 1
370
     0
100
AcDbSpline
210
0.0
220
0.0
230
1.0
 70
    11
 71
     3
 72
    14
 73
    10
 74
     0
 42
0.0000000001
 43
0.0000000001
 12
1.0
 22
0.0
 32
0.0
 13
1.0
 23
0.0
 33
0.0
 40
0.0
 40
0.0
 40
0.0
 40
0.0
 40
1.0
 40
1.0
 40
1.0
 40
2.0
 40
2.0
 40
2.0
 40
3.0
 40
3.0
 40
3.0
 40
3.0
 10
105.5346435283038
 20
-177.4596245216073
 30
0.0
 10
105.488134739253
 20
-177.1127034062427
 30
0.0
 10
105.2383653165724
 20
-176.6514051207677
 30
0.0
 10
104.7348646114031
 20
-176.6514051207677
 30
0.0
 10
104.2906195485801
 20
-176.6514051207677
 30
0.0
 10
104.222923422295
 20
-177.0575818784787
 30
0.0
 10
104.222923422295
 20
-177.4596245216073
 30
0.0
 10
104.222923422295
 20
-177.4596245216073
 30
0.0
 10
105.5346435283038
 20
-177.4596245216073
 30
0.0
 10
105.5346435283038
 20
-177.4596245216073
 30
0.0
  0
HATCH
  5
8E
330
7A
100
AcDbEntity
  8
Layer 1
 62
   250
420
  2301728
100
AcDbHatch
 10
0.0
 20
0.0
 30
0.0
210
0.0
220
0.0
230
1.0
  2
SOLID
 70
     1
 71
     0
 91
        2
 92
        1
 93
        1
 72
     4
 94
        3
 73
     0
 74
     1
 95
       23
 96
       19
 40
0.0
 40
0.0
 40
0.0
 40
0.0
 40
1.0
 40
1.0
 40
1.0
 40
2.0
 40
2.0
 40
2.0
 40
3.0
 40
3.0
 40
3.0
 40
4.0
 40
4.0
 40
4.0
 40
5.0
 40
5.0
 40
5.0
 40
6.0
 40
6.0
 40
6.0
 40
6.0
 10
104.6037787281893
 20
-178.3567273859664
 10
104.5274698631911
 20
-178.3567273859664
 10
103.7321695704211
 20
-178.3608615005487
 10
103.6305392536063
 20
-178.3736083538441
 10
103.6305392536063
 20
-177.6501383019416
 10
103.6432861069017
 20
-177.2439615442307
 10
103.6897948959526
 20
-176.8884276901529
 10
103.816746664584
 20
-175.8772921652321
 10
104.3159410003967
 20
-175.6953911236109
 10
104.6079128427716
 20
-175.6953911236109
 10
105.7758002122713
 20
-175.6953911236109
 10
106.2370984977463
 20
-177.116837520825
 10
106.2029920524423
 20
-178.3777424684264
 10
106.0379719786988
 20
-178.364995615131
 10
105.1453477384706
 20
-178.3567273859664
 10
105.0480237910123
 20
-178.3567273859664
 10
105.0480237910123
 20
-178.3567273859664
 10
104.6037787281893
 20
-178.3567273859664
 10
104.6037787281893
 20
-178.3567273859664
 97
        0
 97
        0
 92
        1
 93
        1
 72
     4
 94
        3
 73
     0
 74
     1
 95
       14
 96
       10
 40
0.0
 40
0.0
 40
0.0
 40
0.0
 40
1.0
 40
1.0
 40
1.0
 40
2.0
 40
2.0
 40
2.0
 40
3.0
 40
3.0
 40
3.0
 40
3.0
 10
105.5346435283038
 20
-177.4596245216073
 10
105.488134739253
 20
-177.1127034062427
 10
105.2383653165724
 20
-176.6514051207677
 10
104.7348646114031
 20
-176.6514051207677
 10
104.2906195485801
 20
-176.6514051207677
 10
104.222923422295
 20
-177.0575818784787
 10
104.222923422295
 20
-177.4596245216073
 10
104.222923422295
 20
-177.4596245216073
 10
105.5346435283038
 20
-177.4596245216073
 10
105.5346435283038
 20
-177.4596245216073
 97
        0
 97
        0
 75
     2
 76
     1
 98
        0
  0
ENDBLK
  5
7D
330
7A
100
AcDbEntity
  8
0
100
AcDbBlockEnd
  0
BLOCK
  5
91
330
8F
100
AcDbEntity
  8
0
100
AcDbBlockBegin
  2
block 5
 70
     0
 10
0.0
 20
0.0
 30
0.0
  3
block 5
  1

  0
SPLINE
  5
93
330
8F
100
AcDbEntity
  8
Layer 1
370
     0
100
AcDbSpline
210
0.0
220
0.0
230
1.0
 70
    11
 71
     3
 72
    41
 73
    37
 74
     0
 42
0.0000000001
 43
0.0000000001
 12
1.0
 22
0.0
 32
0.0
 13
1.0
 23
0.0
 33
0.0
 40
0.0
 40
0.0
 40
0.0
 40
0.0
 40
1.0
 40
1.0
 40
1.0
 40
2.0
 40
2.0
 40
2.0
 40
3.0
 40
3.0
 40
3.0
 40
4.0
 40
4.0
 40
4.0
 40
5.0
 40
5.0
 40
5.0
 40
6.0
 40
6.0
 40
6.0
 40
7.0
 40
7.0
 40
7.0
 40
8.0
 40
8.0
 40
8.0
 40
9.0
 40
9.0
 40
9.0
 40
10.0
 40
10.0
 40
10.0
 40
11.0
 40
11.0
 40
11.0
 40
12.0
 40
12.0
 40
12.0
 40
12.0
 10
103.1370293253442
 20
-172.5606987415821
 30
0.0
 10
103.1142916951416
 20
-172.5548420792571
 30
0.0
 10
102.9825167928308
 20
-172.5493299264807
 30
0.0
 10
102.803544082372
 20
-172.5465738500925
 30
0.0
 10
102.6245713719133
 20
-172.5407171877676
 30
0.0
 10
102.3984008533067
 20
-172.5379611113794
 30
0.0
 10
102.1854939523182
 20
-172.5379611113794
 30
0.0
 10
102.1854939523182
 20
-172.5379611113794
 30
0.0
 10
102.1157307687419
 20
-172.5379611113794
 30
0.0
 10
102.1157307687419
 20
-172.5379611113794
 30
0.0
 10
102.1157307687419
 20
-172.5379611113794
 30
0.0
 10
102.0874809857629
 20
-172.4390868709527
 30
0.0
 10
102.0874809857629
 20
-172.4390868709527
 30
0.0
 10
102.2194281428479
 20
-172.2616644534624
 30
0.0
 10
102.6357679322404
 20
-171.7793510855274
 30
0.0
 10
102.6357679322404
 20
-171.3983235248588
 30
0.0
 10
102.6357679322404
 20
-171.02900928884
 30
0.0
 10
102.3437960898654
 20
-170.9638969841688
 30
0.0
 10
102.1724025894743
 20
-170.9556287550042
 30
0.0
 10
102.1724025894743
 20
-170.9556287550042
 30
0.0
 10
102.2326917604661
 20
-170.4874402785587
 30
0.0
 10
102.2326917604661
 20
-170.4874402785587
 30
0.0
 10
102.8374782729017
 20
-170.5635768887827
 30
0.0
 10
103.0786349568692
 20
-170.9046413418225
 30
0.0
 10
103.0786349568692
 20
-171.2656873486766
 30
0.0
 10
103.0786349568692
 20
-171.7001138893666
 30
0.0
 10
102.803544082372
 20
-171.9567735030178
 30
0.0
 10
102.7224120836944
 20
-172.0470350047313
 30
0.0
 10
102.7224120836944
 20
-172.0470350047313
 30
0.0
 10
102.7224120836944
 20
-172.0697726349339
 30
0.0
 10
102.7224120836944
 20
-172.0697726349339
 30
0.0
 10
102.7224120836944
 20
-172.0697726349339
 30
0.0
 10
103.1370293253442
 20
-172.0360106991785
 30
0.0
 10
103.1370293253442
 20
-172.0360106991785
 30
0.0
 10
103.1370293253442
 20
-172.0360106991785
 30
0.0
 10
103.1370293253442
 20
-172.5606987415821
 30
0.0
 10
103.1370293253442
 20
-172.5606987415821
 30
0.0
  0
HATCH
  5
94
330
8F
100
AcDbEntity
  8
Layer 1
 62
   250
420
  2301728
100
AcDbHatch
 10
0.0
 20
0.0
 30
0.0
210
0.0
220
0.0
230
1.0
  2
SOLID
 70
     1
 71
     0
 91
        1
 92
        1
 93
        1
 72
     4
 94
        3
 73
     0
 74
     1
 95
       41
 96
       37
 40
0.0
 40
0.0
 40
0.0
 40
0.0
 40
1.0
 40
1.0
 40
1.0
 40
2.0
 40
2.0
 40
2.0
 40
3.0
 40
3.0
 40
3.0
 40
4.0
 40
4.0
 40
4.0
 40
5.0
 40
5.0
 40
5.0
 40
6.0
 40
6.0
 40
6.0
 40
7.0
 40
7.0
 40
7.0
 40
8.0
 40
8.0
 40
8.0
 40
9.0
 40
9.0
 40
9.0
 40
10.0
 40
10.0
 40
10.0
 40
11.0
 40
11.0
 40
11.0
 40
12.0
 40
12.0
 40
12.0
 40
12.0
 10
103.1370293253442
 20
-172.5606987415821
 10
103.1142916951416
 20
-172.5548420792571
 10
102.9825167928308
 20
-172.5493299264807
 10
102.803544082372
 20
-172.5465738500925
 10
102.6245713719133
 20
-172.5407171877676
 10
102.3984008533067
 20
-172.5379611113794
 10
102.1854939523182
 20
-172.5379611113794
 10
102.1854939523182
 20
-172.5379611113794
 10
102.1157307687419
 20
-172.5379611113794
 10
102.1157307687419
 20
-172.5379611113794
 10
102.1157307687419
 20
-172.5379611113794
 10
102.0874809857629
 20
-172.4390868709527
 10
102.0874809857629
 20
-172.4390868709527
 10
102.2194281428479
 20
-172.2616644534624
 10
102.6357679322404
 20
-171.7793510855274
 10
102.6357679322404
 20
-171.3983235248588
 10
102.6357679322404
 20
-171.02900928884
 10
102.3437960898654
 20
-170.9638969841688
 10
102.1724025894743
 20
-170.9556287550042
 10
102.1724025894743
 20
-170.9556287550042
 10
102.2326917604661
 20
-170.4874402785587
 10
102.2326917604661
 20
-170.4874402785587
 10
102.8374782729017
 20
-170.5635768887827
 10
103.0786349568692
 20
-170.9046413418225
 10
103.0786349568692
 20
-171.2656873486766
 10
103.0786349568692
 20
-171.7001138893666
 10
102.803544082372
 20
-171.9567735030178
 10
102.7224120836944
 20
-172.0470350047313
 10
102.7224120836944
 20
-172.0470350047313
 10
102.7224120836944
 20
-172.0697726349339
 10
102.7224120836944
 20
-172.0697726349339
 10
102.7224120836944
 20
-172.0697726349339
 10
103.1370293253442
 20
-172.0360106991785
 10
103.1370293253442
 20
-172.0360106991785
 10
103.1370293253442
 20
-172.0360106991785
 10
103.1370293253442
 20
-172.5606987415821
 10
103.1370293253442
 20
-172.5606987415821
 97
        0
 97
        0
 75
     2
 76
     1
 98
        0
  0
SPLINE
  5
95
330
8F
100
AcDbEntity
  8
Layer 1
370
     0
100
AcDbSpline
210
0.0
220
0.0
230
1.0
 70
    11
 71
     3
 72
    17
 73
    13
 74
     0
 42
0.0000000001
 43
0.0000000001
 12
1.0
 22
0.0
 32
0.0
 13
1.0
 23
0.0
 33
0.0
 40
0.0
 40
0.0
 40
0.0
 40
0.0
 40
1.0
 40
1.0
 40
1.0
 40
2.0
 40
2.0
 40
2.0
 40
3.0
 40
3.0
 40
3.0
 40
4.0
 40
4.0
 40
4.0
 40
4.0
 10
103.5158175739474
 20
-171.5760904518976
 30
0.0
 10
103.5158175739474
 20
-171.0090277350255
 30
0.0
 10
103.8058946138055
 20
-170.5804578566604
 30
0.0
 10
104.2637478037952
 20
-170.5804578566604
 30
0.0
 10
104.6895616057721
 20
-170.5804578566604
 30
0.0
 10
104.9420871048409
 20
-170.9838785379832
 30
0.0
 10
104.9420871048409
 20
-171.4999538416736
 30
0.0
 10
104.9420871048409
 20
-172.0160291453641
 30
0.0
 10
104.7028252233903
 20
-172.4900742841344
 30
0.0
 10
104.2224066579722
 20
-172.4900742841344
 30
0.0
 10
103.8058946138055
 20
-172.4900742841344
 30
0.0
 10
103.5158175739474
 20
-172.1627902130357
 30
0.0
 10
103.5158175739474
 20
-171.5760904518976
 30
0.0
  0
SPLINE
  5
96
330
8F
100
AcDbEntity
  8
Layer 1
370
     0
100
AcDbSpline
210
0.0
220
0.0
230
1.0
 70
    11
 71
     3
 72
    17
 73
    13
 74
     0
 42
0.0000000001
 43
0.0000000001
 12
1.0
 22
0.0
 32
0.0
 13
1.0
 23
0.0
 33
0.0
 40
0.0
 40
0.0
 40
0.0
 40
0.0
 40
1.0
 40
1.0
 40
1.0
 40
2.0
 40
2.0
 40
2.0
 40
3.0
 40
3.0
 40
3.0
 40
4.0
 40
4.0
 40
4.0
 40
4.0
 10
104.5067992902796
 20
-171.5140787331632
 30
0.0
 10
104.5067992902796
 20
-171.1361517584313
 30
0.0
 10
104.3503919552492
 20
-171.0400335943928
 30
0.0
 10
104.2411824283668
 20
-171.0400335943928
 30
0.0
 10
104.1187092838662
 20
-171.0400335943928
 30
0.0
 10
103.947315783475
 20
-171.1416639112076
 30
0.0
 10
103.9492105859919
 20
-171.5536973312435
 30
0.0
 10
103.9511053885088
 20
-171.9288682295872
 30
0.0
 10
104.1111300737986
 20
-172.0301540368536
 30
0.0
 10
104.2336032182992
 20
-172.0301540368536
 30
0.0
 10
104.3560737265436
 20
-172.0301540368536
 30
0.0
 10
104.5067992902796
 20
-171.8975178606715
 30
0.0
 10
104.5067992902796
 20
-171.5140787331632
 30
0.0
  0
HATCH
  5
97
330
8F
100
AcDbEntity
  8
Layer 1
 62
   250
420
  2301728
100
AcDbHatch
 10
0.0
 20
0.0
 30
0.0
210
0.0
220
0.0
230
1.0
  2
SOLID
 70
     1
 71
     0
 91
        2
 92
        1
 93
        1
 72
     4
 94
        3
 73
     0
 74
     1
 95
       17
 96
       13
 40
0.0
 40
0.0
 40
0.0
 40
0.0
 40
1.0
 40
1.0
 40
1.0
 40
2.0
 40
2.0
 40
2.0
 40
3.0
 40
3.0
 40
3.0
 40
4.0
 40
4.0
 40
4.0
 40
4.0
 10
103.5158175739474
 20
-171.5760904518976
 10
103.5158175739474
 20
-171.0090277350255
 10
103.8058946138055
 20
-170.5804578566604
 10
104.2637478037952
 20
-170.5804578566604
 10
104.6895616057721
 20
-170.5804578566604
 10
104.9420871048409
 20
-170.9838785379832
 10
104.9420871048409
 20
-171.4999538416736
 10
104.9420871048409
 20
-172.0160291453641
 10
104.7028252233903
 20
-172.4900742841344
 10
104.2224066579722
 20
-172.4900742841344
 10
103.8058946138055
 20
-172.4900742841344
 10
103.5158175739474
 20
-172.1627902130357
 10
103.5158175739474
 20
-171.5760904518976
 97
        0
 97
        0
 92
        1
 93
        1
 72
     4
 94
        3
 73
     0
 74
     1
 95
       17
 96
       13
 40
0.0
 40
0.0
 40
0.0
 40
0.0
 40
1.0
 40
1.0
 40
1.0
 40
2.0
 40
2.0
 40
2.0
 40
3.0
 40
3.0
 40
3.0
 40
4.0
 40
4.0
 40
4.0
 40
4.0
 10
104.5067992902796
 20
-171.5140787331632
 10
104.5067992902796
 20
-171.1361517584313
 10
104.3503919552492
 20
-171.0400335943928
 10
104.2411824283668
 20
-171.0400335943928
 10
104.1187092838662
 20
-171.0400335943928
 10
103.947315783475
 20
-171.1416639112076
 10
103.9492105859919
 20
-171.5536973312435
 10
103.9511053885088
 20
-171.9288682295872
 10
104.1111300737986
 20
-172.0301540368536
 10
104.2336032182992
 20
-172.0301540368536
 10
104.3560737265436
 20
-172.0301540368536
 10
104.5067992902796
 20
-171.8975178606715
 10
104.5067992902796
 20
-171.5140787331632
 97
        0
 97
        0
 75
     2
 76
     1
 98
        0
  0
SPLINE
  5
98
330
8F
100
AcDbEntity
  8
Layer 1
370
     0
100
AcDbSpline
210
0.0
220
0.0
230
1.0
 70
    11
 71
     3
 72
    41
 73
    37
 74
     0
 42
0.0000000001
 43
0.0000000001
 12
1.0
 22
0.0
 32
0.0
 13
1.0
 23
0.0
 33
0.0
 40
0.0
 40
0.0
 40
0.0
 40
0.0
 40
1.0
 40
1.0
 40
1.0
 40
2.0
 40
2.0
 40
2.0
 40
3.0
 40
3.0
 40
3.0
 40
4.0
 40
4.0
 40
4.0
 40
5.0
 40
5.0
 40
5.0
 40
6.0
 40
6.0
 40
6.0
 40
7.0
 40
7.0
 40
7.0
 40
8.0
 40
8.0
 40
8.0
 40
9.0
 40
9.0
 40
9.0
 40
10.0
 40
10.0
 40
10.0
 40
11.0
 40
11.0
 40
11.0
 40
12.0
 40
12.0
 40
12.0
 40
12.0
 10
106.21987302032
 20
-172.5606987415821
 30
0.0
 10
106.1971353901174
 20
-172.5548420792571
 30
0.0
 10
106.0651882330323
 20
-172.5493299264807
 30
0.0
 10
105.8863877773478
 20
-172.5465738500925
 30
0.0
 10
105.7072428121149
 20
-172.5407171877676
 30
0.0
 10
105.4812445482825
 20
-172.5379611113794
 30
0.0
 10
105.2681653925198
 20
-172.5379611113794
 30
0.0
 10
105.2681653925198
 20
-172.5379611113794
 30
0.0
 10
105.1984022089435
 20
-172.5379611113794
 30
0.0
 10
105.1984022089435
 20
-172.5379611113794
 30
0.0
 10
105.1984022089435
 20
-172.5379611113794
 30
0.0
 10
105.1701524259644
 20
-172.4390868709527
 30
0.0
 10
105.1701524259644
 20
-172.4390868709527
 30
0.0
 10
105.3020995830495
 20
-172.2616644534624
 30
0.0
 10
105.7186116272162
 20
-171.7793510855274
 30
0.0
 10
105.7186116272162
 20
-171.3983235248588
 30
0.0
 10
105.7186116272162
 20
-171.02900928884
 30
0.0
 10
105.426467530067
 20
-170.9638969841688
 30
0.0
 10
105.2550740296758
 20
-170.9556287550042
 30
0.0
 10
105.2550740296758
 20
-170.9556287550042
 30
0.0
 10
105.3153632006677
 20
-170.4874402785587
 30
0.0
 10
105.3153632006677
 20
-170.4874402785587
 30
0.0
 10
105.9201497131033
 20
-170.5635768887827
 30
0.0
 10
106.1613063970708
 20
-170.9046413418225
 30
0.0
 10
106.1613063970708
 20
-171.2656873486766
 30
0.0
 10
106.1613063970708
 20
-171.7001138893666
 30
0.0
 10
105.8863877773478
 20
-171.9567735030178
 30
0.0
 10
105.805083523896
 20
-172.0470350047313
 30
0.0
 10
105.805083523896
 20
-172.0470350047313
 30
0.0
 10
105.805083523896
 20
-172.0697726349339
 30
0.0
 10
105.805083523896
 20
-172.0697726349339
 30
0.0
 10
105.805083523896
 20
-172.0697726349339
 30
0.0
 10
106.21987302032
 20
-172.0360106991785
 30
0.0
 10
106.21987302032
 20
-172.0360106991785
 30
0.0
 10
106.21987302032
 20
-172.0360106991785
 30
0.0
 10
106.21987302032
 20
-172.5606987415821
 30
0.0
 10
106.21987302032
 20
-172.5606987415821
 30
0.0
  0
HATCH
  5
99
330
8F
100
AcDbEntity
  8
Layer 1
 62
   250
420
  2301728
100
AcDbHatch
 10
0.0
 20
0.0
 30
0.0
210
0.0
220
0.0
230
1.0
  2
SOLID
 70
     1
 71
     0
 91
        1
 92
        1
 93
        1
 72
     4
 94
        3
 73
     0
 74
     1
 95
       41
 96
       37
 40
0.0
 40
0.0
 40
0.0
 40
0.0
 40
1.0
 40
1.0
 40
1.0
 40
2.0
 40
2.0
 40
2.0
 40
3.0
 40
3.0
 40
3.0
 40
4.0
 40
4.0
 40
4.0
 40
5.0
 40
5.0
 40
5.0
 40
6.0
 40
6.0
 40
6.0
 40
7.0
 40
7.0
 40
7.0
 40
8.0
 40
8.0
 40
8.0
 40
9.0
 40
9.0
 40
9.0
 40
10.0
 40
10.0
 40
10.0
 40
11.0
 40
11.0
 40
11.0
 40
12.0
 40
12.0
 40
12.0
 40
12.0
 10
106.21987302032
 20
-172.5606987415821
 10
106.1971353901174
 20
-172.5548420792571
 10
106.0651882330323
 20
-172.5493299264807
 10
105.8863877773478
 20
-172.5465738500925
 10
105.7072428121149
 20
-172.5407171877676
 10
105.4812445482825
 20
-172.5379611113794
 10
105.2681653925198
 20
-172.5379611113794
 10
105.2681653925198
 20
-172.5379611113794
 10
105.1984022089435
 20
-172.5379611113794
 10
105.1984022089435
 20
-172.5379611113794
 10
105.1984022089435
 20
-172.5379611113794
 10
105.1701524259644
 20
-172.4390868709527
 10
105.1701524259644
 20
-172.4390868709527
 10
105.3020995830495
 20
-172.2616644534624
 10
105.7186116272162
 20
-171.7793510855274
 10
105.7186116272162
 20
-171.3983235248588
 10
105.7186116272162
 20
-171.02900928884
 10
105.426467530067
 20
-170.9638969841688
 10
105.2550740296758
 20
-170.9556287550042
 10
105.2550740296758
 20
-170.9556287550042
 10
105.3153632006677
 20
-170.4874402785587
 10
105.3153632006677
 20
-170.4874402785587
 10
105.9201497131033
 20
-170.5635768887827
 10
106.1613063970708
 20
-170.9046413418225
 10
106.1613063970708
 20
-171.2656873486766
 10
106.1613063970708
 20
-171.7001138893666
 10
105.8863877773478
 20
-171.9567735030178
 10
105.805083523896
 20
-172.0470350047313
 10
105.805083523896
 20
-172.0470350047313
 10
105.805083523896
 20
-172.0697726349339
 10
105.805083523896
 20
-172.0697726349339
 10
105.805083523896
 20
-172.0697726349339
 10
106.21987302032
 20
-172.0360106991785
 10
106.21987302032
 20
-172.0360106991785
 10
106.21987302032
 20
-172.0360106991785
 10
106.21987302032
 20
-172.5606987415821
 10
106.21987302032
 20
-172.5606987415821
 97
        0
 97
        0
 75
     2
 76
     1
 98
        0
  0
SPLINE
  5
9A
330
8F
100
AcDbEntity
  8
Layer 1
370
     0
100
AcDbSpline
210
0.0
220
0.0
230
1.0
 70
    11
 71
     3
 72
    17
 73
    13
 74
     0
 42
0.0000000001
 43
0.0000000001
 12
1.0
 22
0.0
 32
0.0
 13
1.0
 23
0.0
 33
0.0
 40
0.0
 40
0.0
 40
0.0
 40
0.0
 40
1.0
 40
1.0
 40
1.0
 40
2.0
 40
2.0
 40
2.0
 40
3.0
 40
3.0
 40
3.0
 40
4.0
 40
4.0
 40
4.0
 40
4.0
 10
106.598489014149
 20
-171.5760904518976
 30
0.0
 10
106.598489014149
 20
-171.0090277350255
 30
0.0
 10
106.888566054007
 20
-170.5804578566604
 30
0.0
 10
107.3464192439967
 20
-170.5804578566604
 30
0.0
 10
107.7722330459736
 20
-170.5804578566604
 30
0.0
 10
108.0247585450424
 20
-170.9838785379832
 30
0.0
 10
108.0247585450424
 20
-171.4999538416736
 30
0.0
 10
108.0247585450424
 20
-172.0160291453641
 30
0.0
 10
107.7853244088176
 20
-172.4900742841344
 30
0.0
 10
107.3050780981737
 20
-172.4900742841344
 30
0.0
 10
106.888566054007
 20
-172.4900742841344
 30
0.0
 10
106.598489014149
 20
-172.1627902130357
 30
0.0
 10
106.598489014149
 20
-171.5760904518976
 30
0.0
  0
SPLINE
  5
9B
330
8F
100
AcDbEntity
  8
Layer 1
370
     0
100
AcDbSpline
210
0.0
220
0.0
230
1.0
 70
    11
 71
     3
 72
    17
 73
    13
 74
     0
 42
0.0000000001
 43
0.0000000001
 12
1.0
 22
0.0
 32
0.0
 13
1.0
 23
0.0
 33
0.0
 40
0.0
 40
0.0
 40
0.0
 40
0.0
 40
1.0
 40
1.0
 40
1.0
 40
2.0
 40
2.0
 40
2.0
 40
3.0
 40
3.0
 40
3.0
 40
4.0
 40
4.0
 40
4.0
 40
4.0
 10
107.5896429852554
 20
-171.5140787331632
 30
0.0
 10
107.5896429852554
 20
-171.1361517584313
 30
0.0
 10
107.433235650225
 20
-171.0400335943928
 30
0.0
 10
107.3240261233426
 20
-171.0400335943928
 30
0.0
 10
107.2013807240677
 20
-171.0400335943928
 30
0.0
 10
107.0298149689023
 20
-171.1416639112076
 30
0.0
 10
107.0318820261934
 20
-171.5536973312435
 30
0.0
 10
107.033604573936
 20
-171.9288682295872
 30
0.0
 10
107.1938015140002
 20
-172.0301540368536
 30
0.0
 10
107.3164469132751
 20
-172.0301540368536
 30
0.0
 10
107.4387478030014
 20
-172.0301540368536
 30
0.0
 10
107.5896429852554
 20
-171.8975178606715
 30
0.0
 10
107.5896429852554
 20
-171.5140787331632
 30
0.0
  0
HATCH
  5
9C
330
8F
100
AcDbEntity
  8
Layer 1
 62
   250
420
  2301728
100
AcDbHatch
 10
0.0
 20
0.0
 30
0.0
210
0.0
220
0.0
230
1.0
  2
SOLID
 70
     1
 71
     0
 91
        2
 92
        1
 93
        1
 72
     4
 94
        3
 73
     0
 74
     1
 95
       17
 96
       13
 40
0.0
 40
0.0
 40
0.0
 40
0.0
 40
1.0
 40
1.0
 40
1.0
 40
2.0
 40
2.0
 40
2.0
 40
3.0
 40
3.0
 40
3.0
 40
4.0
 40
4.0
 40
4.0
 40
4.0
 10
106.598489014149
 20
-171.5760904518976
 10
106.598489014149
 20
-171.0090277350255
 10
106.888566054007
 20
-170.5804578566604
 10
107.3464192439967
 20
-170.5804578566604
 10
107.7722330459736
 20
-170.5804578566604
 10
108.0247585450424
 20
-170.9838785379832
 10
108.0247585450424
 20
-171.4999538416736
 10
108.0247585450424
 20
-172.0160291453641
 10
107.7853244088176
 20
-172.4900742841344
 10
107.3050780981737
 20
-172.4900742841344
 10
106.888566054007
 20
-172.4900742841344
 10
106.598489014149
 20
-172.1627902130357
 10
106.598489014149
 20
-171.5760904518976
 97
        0
 97
        0
 92
        1
 93
        1
 72
     4
 94
        3
 73
     0
 74
     1
 95
       17
 96
       13
 40
0.0
 40
0.0
 40
0.0
 40
0.0
 40
1.0
 40
1.0
 40
1.0
 40
2.0
 40
2.0
 40
2.0
 40
3.0
 40
3.0
 40
3.0
 40
4.0
 40
4.0
 40
4.0
 40
4.0
 10
107.5896429852554
 20
-171.5140787331632
 10
107.5896429852554
 20
-171.1361517584313
 10
107.433235650225
 20
-171.0400335943928
 10
107.3240261233426
 20
-171.0400335943928
 10
107.2013807240677
 20
-171.0400335943928
 10
107.0298149689023
 20
-171.1416639112076
 10
107.0318820261934
 20
-171.5536973312435
 10
107.033604573936
 20
-171.9288682295872
 10
107.1938015140002
 20
-172.0301540368536
 10
107.3164469132751
 20
-172.0301540368536
 10
107.4387478030014
 20
-172.0301540368536
 10
107.5896429852554
 20
-171.8975178606715
 10
107.5896429852554
 20
-171.5140787331632
 97
        0
 97
        0
 75
     2
 76
     1
 98
        0
  0
ENDBLK
  5
92
330
8F
100
AcDbEntity
  8
0
100
AcDbBlockEnd
  0
ENDSEC
  0
SECTION
  2
ENTITIES
  0
INSERT
  5
42
330
1F
100
AcDbEntity
  8
Layer 1
100
AcDbBlockReference
  2
block 2
 10
0.0
 20
0.0
 30
0.0
  0
INSERT
  5
51
330
1F
100
AcDbEntity
  8
Layer 1
100
AcDbBlockReference
  2
block 3
 10
0.0
 20
0.0
 30
0.0
  0
POLYLINE
  5
60
330
1F
100
AcDbEntity
  8
Layer 1
 62
   250
420
  2301728
370
    35
100
AcDb2dPolyline
 66
     1
 10
0.0
 20
0.0
 30
0.0
  0
VERTEX
  5
61
330
60
100
AcDbEntity
  8
Layer 1
 62
   250
420
  2301728
370
    35
100
AcDbVertex
100
AcDb2dVertex
 10
108.0712673340933
 20
-163.4372474420061
 30
0.0
  0
VERTEX
  5
62
330
60
100
AcDbEntity
  8
Layer 1
 62
   250
420
  2301728
370
    35
100
AcDbVertex
100
AcDb2dVertex
 10
101.9302881689618
 20
-163.4372474420061
 30
0.0
  0
VERTEX
  5
63
330
60
100
AcDbEntity
  8
Layer 1
 62
   250
420
  2301728
370
    35
100
AcDbVertex
100
AcDb2dVertex
 10
101.9302881689618
 20
-153.4372474445057
 30
0.0
  0
VERTEX
  5
64
330
60
100
AcDbEntity
  8
Layer 1
 62
   250
420
  2301728
370
    35
100
AcDbVertex
100
AcDb2dVertex
 10
108.0712673340933
 20
-153.4372474445057
 30
0.0
  0
VERTEX
  5
65
330
60
100
AcDbEntity
  8
Layer 1
 62
   250
420
  2301728
370
    35
100
AcDbVertex
100
AcDb2dVertex
 10
108.0712673340933
 20
-163.4372474420061
 30
0.0
  0
SEQEND
  5
66
330
60
100
AcDbEntity
  8
Layer 1
 62
   250
420
  2301728
370
    35
  0
POLYLINE
  5
67
330
1F
100
AcDbEntity
  8
Layer 1
 62
   250
420
  2301728
370
    35
100
AcDb2dPolyline
 66
     1
 10
0.0
 20
0.0
 30
0.0
  0
VERTEX
  5
68
330
67
100
AcDbEntity
  8
Layer 1
 62
   250
420
  2301728
370
    35
100
AcDbVertex
100
AcDb2dVertex
 10
99.9207743077021
 20
-180.5604903723404
 30
0.0
  0
VERTEX
  5
69
330
67
100
AcDbEntity
  8
Layer 1
 62
   250
420
  2301728
370
    35
100
AcDbVertex
100
AcDb2dVertex
 10
99.9207743077021
 20
-190.5617317571013
 30
0.0
  0
VERTEX
  5
6A
330
67
100
AcDbEntity
  8
Layer 1
 62
   250
420
  2301728
370
    35
100
AcDbVertex
100
AcDb2dVertex
 10
86.53991578375782
 20
-190.5617317571013
 30
0.0
  0
VERTEX
  5
6B
330
67
100
AcDbEntity
  8
Layer 1
 62
   250
420
  2301728
370
    35
100
AcDbVertex
100
AcDb2dVertex
 10
86.53991578375782
 20
-180.5604903723404
 30
0.0
  0
VERTEX
  5
6C
330
67
100
AcDbEntity
  8
Layer 1
 62
   250
420
  2301728
370
    35
100
AcDbVertex
100
AcDb2dVertex
 10
87.74994097741148
 20
-180.5604903723404
 30
0.0
  0
VERTEX
  5
6D
330
67
100
AcDbEntity
  8
Layer 1
 62
   250
420
  2301728
370
    35
100
AcDbVertex
100
AcDb2dVertex
 10
87.70054692089202
 20
-180.6098844288601
 30
0.0
  0
VERTEX
  5
6E
330
67
100
AcDbEntity
  8
Layer 1
 62
   250
420
  2301728
370
    35
100
AcDbVertex
100
AcDb2dVertex
 10
94.01527775427397
 20
-186.9245937303956
 30
0.0
  0
VERTEX
  5
6F
330
67
100
AcDbEntity
  8
Layer 1
 62
   250
420
  2301728
370
    35
100
AcDbVertex
100
AcDb2dVertex
 10
96.13547564328384
 20
-184.8043958413857
 30
0.0
  0
VERTEX
  5
70
330
67
100
AcDbEntity
  8
Layer 1
 62
   250
420
  2301728
370
    35
100
AcDbVertex
100
AcDb2dVertex
 10
91.8915486423917
 20
-180.5604903723404
 30
0.0
  0
VERTEX
  5
71
330
67
100
AcDbEntity
  8
Layer 1
 62
   250
420
  2301728
370
    35
100
AcDbVertex
100
AcDb2dVertex
 10
99.9207743077021
 20
-180.5604903723404
 30
0.0
  0
SEQEND
  5
72
330
67
100
AcDbEntity
  8
Layer 1
 62
   250
420
  2301728
370
    35
  0
POLYLINE
  5
73
330
1F
100
AcDbEntity
  8
Layer 1
 62
   250
420
  2301728
370
    35
100
AcDb2dPolyline
 66
     1
 10
0.0
 20
0.0
 30
0.0
  0
VERTEX
  5
74
330
73
100
AcDbEntity
  8
Layer 1
 62
   250
420
  2301728
370
    35
100
AcDbVertex
100
AcDb2dVertex
 10
122.7402771325024
 20
-195.0611104477555
 30
0.0
  0
VERTEX
  5
75
330
73
100
AcDbEntity
  8
Layer 1
 62
   250
420
  2301728
370
    35
100
AcDbVertex
100
AcDb2dVertex
 10
109.7402771357528
 20
-195.0611104477555
 30
0.0
  0
VERTEX
  5
76
330
73
100
AcDbEntity
  8
Layer 1
 62
   250
420
  2301728
370
    35
100
AcDbVertex
100
AcDb2dVertex
 10
109.7402771357528
 20
-176.0611104525053
 30
0.0
  0
VERTEX
  5
77
330
73
100
AcDbEntity
  8
Layer 1
 62
   250
420
  2301728
370
    35
100
AcDbVertex
100
AcDb2dVertex
 10
122.7402771325024
 20
-176.0611104525053
 30
0.0
  0
VERTEX
  5
78
330
73
100
AcDbEntity
  8
Layer 1
 62
   250
420
  2301728
370
    35
100
AcDbVertex
100
AcDb2dVertex
 10
122.7402771325024
 20
-195.0611104477555
 30
0.0
  0
SEQEND
  5
79
330
73
100
AcDbEntity
  8
Layer 1
 62
   250
420
  2301728
370
    35
  0
INSERT
  5
7B
330
1F
100
AcDbEntity
  8
Layer 1
100
AcDbBlockReference
  2
block 4
 10
0.0
 20
0.0
 30
0.0
  0
INSERT
  5
90
330
1F
100
AcDbEntity
  8
Layer 1
100
AcDbBlockReference
  2
block 5
 10
0.0
 20
0.0
 30
0.0
  0
ENDSEC
  0
SECTION
  2
OBJECTS
  0
DICTIONARY
  5
C
330
0
100
AcDbDictionary
281
     1
  3
ACAD_GROUP
350
D
  3
ACAD_LAYOUT
350
1A
  3
ACAD_MATERIAL
350
3B
  3
ACAD_MLEADERSTYLE
350
A0
  3
ACAD_MLINESTYLE
350
17
  3
ACAD_PLOTSETTINGS
350
19
  3
ACAD_PLOTSTYLENAME
350
E
  3
ACAD_TABLESTYLE
350
9F
  3
ACAD_VISUALSTYLE
350
2A
  0
SUN
  5
3F
330
29
100
AcDbSun
 90
        1
290
     0
 63
     7
421
 16777215
 40
1.0
291
     1
 91
  2455826
 92
 54000000
292
     0
 70
     2
 71
   256
280
     1
  0
DICTIONARY
  5
D
102
{ACAD_REACTORS
330
C
102
}
330
C
100
AcDbDictionary
281
     1
  0
DICTIONARY
  5
1A
102
{ACAD_REACTORS
330
C
102
}
330
C
100
AcDbDictionary
281
     1
  3
Layout1
350
1E
  3
Layout2
350
26
  3
Model
350
22
  0
DICTIONARY
  5
3B
102
{ACAD_REACTORS
330
C
102
}
330
C
100
AcDbDictionary
281
     1
  3
ByBlock
350
3D
  3
ByLayer
350
3C
  3
Global
350
3E
  0
DICTIONARY
  5
A0
102
{ACAD_REACTORS
330
C
102
}
330
C
100
AcDbDictionary
281
     1
  0
DICTIONARY
  5
17
102
{ACAD_REACTORS
330
C
102
}
330
C
100
AcDbDictionary
281
     1
  3
Standard
350
18
  0
DICTIONARY
  5
19
102
{ACAD_REACTORS
330
C
102
}
330
C
100
AcDbDictionary
281
     1
  0
ACDBDICTIONARYWDFLT
  5
E
102
{ACAD_REACTORS
330
C
102
}
330
C
100
AcDbDictionary
281
     1
  3
Normal
350
F
100
AcDbDictionaryWithDefault
340
F
  0
DICTIONARY
  5
9F
102
{ACAD_REACTORS
330
C
102
}
330
C
100
AcDbDictionary
281
     1
  0
DICTIONARY
  5
2A
102
{ACAD_REACTORS
330
C
102
}
330
C
100
AcDbDictionary
281
     1
  3
2dWireframe
350
2F
  3
3D Hidden
350
31
  3
3dWireframe
350
30
  3
Basic
350
32
  3
Brighten
350
36
  3
ColorChange
350
3A
  3
Conceptual
350
34
  3
Dim
350
35
  3
Facepattern
350
39
  3
Flat
350
2B
  3
FlatWithEdges
350
2C
  3
Gouraud
350
2D
  3
GouraudWithEdges
350
2E
  3
Linepattern
350
38
  3
Realistic
350
33
  3
Thicken
350
37
  0
LAYOUT
  5
1E
102
{ACAD_REACTORS
330
1A
102
}
330
1A
100
AcDbPlotSettings
  1

  2
none_device
  4

  6

 40
0.0
 41
0.0
 42
0.0
 43
0.0
 44
0.0
 45
0.0
 46
0.0
 47
0.0
 48
0.0
 49
0.0
140
0.0
141
0.0
142
1.0
143
1.0
 70
   688
 72
     0
 73
     0
 74
     5
  7

 75
    16
 76
     0
 77
     2
 78
   300
147
1.0
148
0.0
149
0.0
100
AcDbLayout
  1
Layout1
 70
     1
 71
     1
 10
0.0
 20
0.0
 11
12.0
 21
9.0
 12
0.0
 22
0.0
 32
0.0
 14
1.000000000000000E+20
 24
1.000000000000000E+20
 34
1.000000000000000E+20
 15
-1.000000000000000E+20
 25
-1.000000000000000E+20
 35
-1.000000000000000E+20
146
0.0
 13
0.0
 23
0.0
 33
0.0
 16
1.0
 26
0.0
 36
0.0
 17
0.0
 27
1.0
 37
0.0
 76
     0
330
1B
  0
LAYOUT
  5
26
102
{ACAD_REACTORS
330
1A
102
}
330
1A
100
AcDbPlotSettings
  1

  2
none_device
  4

  6

 40
0.0
 41
0.0
 42
0.0
 43
0.0
 44
0.0
 45
0.0
 46
0.0
 47
0.0
 48
0.0
 49
0.0
140
0.0
141
0.0
142
1.0
143
1.0
 70
   688
 72
     0
 73
     0
 74
     5
  7

 75
    16
 76
     0
 77
     2
 78
   300
147
1.0
148
0.0
149
0.0
100
AcDbLayout
  1
Layout2
 70
     1
 71
     2
 10
0.0
 20
0.0
 11
0.0
 21
0.0
 12
0.0
 22
0.0
 32
0.0
 14
0.0
 24
0.0
 34
0.0
 15
0.0
 25
0.0
 35
0.0
146
0.0
 13
0.0
 23
0.0
 33
0.0
 16
1.0
 26
0.0
 36
0.0
 17
0.0
 27
1.0
 37
0.0
 76
     0
330
23
  0
LAYOUT
  5
22
102
{ACAD_REACTORS
330
1A
102
}
330
1A
100
AcDbPlotSettings
  1

  2
none_device
  4

  6

 40
0.0
 41
0.0
 42
0.0
 43
0.0
 44
0.0
 45
0.0
 46
0.0
 47
0.0
 48
0.0
 49
0.0
140
0.0
141
0.0
142
1.0
143
1.0
 70
  1712
 72
     0
 73
     0
 74
     0
  7

 75
     0
 76
     0
 77
     2
 78
   300
147
1.0
148
0.0
149
0.0
100
AcDbLayout
  1
Model
 70
     1
 71
     0
 10
0.0
 20
0.0
 11
12.0
 21
9.0
 12
0.0
 22
0.0
 32
0.0
 14
1.000000000000000E+20
 24
1.000000000000000E+20
 34
1.000000000000000E+20
 15
-1.000000000000000E+20
 25
-1.000000000000000E+20
 35
-1.000000000000000E+20
146
0.0
 13
0.0
 23
0.0
 33
0.0
 16
1.0
 26
0.0
 36
0.0
 17
0.0
 27
1.0
 37
0.0
 76
     0
330
1F
331
29
  0
MATERIAL
  5
3D
102
{ACAD_REACTORS
330
3B
102
}
330
3B
100
AcDbMaterial
  1
ByBlock
 72
     1
 94
      127
  0
MATERIAL
  5
3C
102
{ACAD_REACTORS
330
3B
102
}
330
3B
100
AcDbMaterial
  1
ByLayer
 72
     1
 94
      127
  0
MATERIAL
  5
3E
102
{ACAD_REACTORS
330
3B
102
}
330
3B
100
AcDbMaterial
  1
Global
 72
     1
 94
      127
  0
MLINESTYLE
  5
18
102
{ACAD_REACTORS
330
17
102
}
330
17
100
AcDbMlineStyle
  2
Standard
 70
     0
  3

 62
   256
 51
90.0
 52
90.0
 71
     2
 49
0.5
 62
   256
  6
BYLAYER
 49
-0.5
 62
   256
  6
BYLAYER
  0
ACDBPLACEHOLDER
  5
F
102
{ACAD_REACTORS
330
E
102
}
330
E
  0
VISUALSTYLE
  5
2F
102
{ACAD_REACTORS
330
2A
102
}
330
2A
100
AcDbVisualStyle
  2
2dWireframe
 70
     4
177
     2
291
     0
 71
     0
176
     1
 72
     2
176
     1
 73
     0
176
     1
 90
        0
176
     1
 40
-0.6
176
     1
 41
-30.0
176
     1
 62
     5
 63
     7
421
 16777215
176
     1
 74
     1
176
     1
 91
        4
176
     1
 64
     7
176
     1
 65
   257
176
     1
 75
     1
176
     1
175
     1
176
     1
 42
1.0
176
     1
 92
        0
176
     1
 66
   257
176
     1
 43
1.0
176
     1
 76
     1
176
     1
 77
     6
176
     1
 78
     2
176
     1
 67
     7
176
     1
 79
     5
176
     1
170
     0
176
     1
171
     0
176
     1
290
     0
176
     1
 93
        1
176
     1
 44
0.0
176
     1
173
     0
176
     1
  0
VISUALSTYLE
  5
31
102
{ACAD_REACTORS
330
2A
102
}
330
2A
100
AcDbVisualStyle
  2
3D Hidden
 70
     6
177
     2
291
     0
 71
     1
176
     1
 72
     2
176
     1
 73
     2
176
     1
 90
        0
176
     1
 40
-0.6
176
     1
 41
-30.0
176
     1
 62
     5
 63
     7
421
 16777215
176
     1
 74
     2
176
     1
 91
        2
176
     1
 64
     7
176
     1
 65
   257
176
     1
 75
     2
176
     1
175
     1
176
     1
 42
40.0
176
     1
 92
        0
176
     1
 66
   257
176
     1
 43
1.0
176
     1
 76
     1
176
     1
 77
     6
176
     1
 78
     2
176
     1
 67
     7
176
     1
 79
     3
176
     1
170
     0
176
     1
171
     0
176
     1
290
     0
176
     1
 93
        1
176
     1
 44
0.0
176
     1
173
     0
176
     1
  0
VISUALSTYLE
  5
30
102
{ACAD_REACTORS
330
2A
102
}
330
2A
100
AcDbVisualStyle
  2
3dWireframe
 70
     5
177
     2
291
     0
 71
     0
176
     1
 72
     2
176
     1
 73
     0
176
     1
 90
        0
176
     1
 40
-0.6
176
     1
 41
-30.0
176
     1
 62
     5
 63
     7
421
 16777215
176
     1
 74
     1
176
     1
 91
        4
176
     1
 64
     7
176
     1
 65
   257
176
     1
 75
     1
176
     1
175
     1
176
     1
 42
1.0
176
     1
 92
        0
176
     1
 66
   257
176
     1
 43
1.0
176
     1
 76
     1
176
     1
 77
     6
176
     1
 78
     2
176
     1
 67
     7
176
     1
 79
     5
176
     1
170
     0
176
     1
171
     0
176
     1
290
     0
176
     1
 93
        1
176
     1
 44
0.0
176
     1
173
     0
176
     1
  0
VISUALSTYLE
  5
32
102
{ACAD_REACTORS
330
2A
102
}
330
2A
100
AcDbVisualStyle
  2
Basic
 70
     7
177
     2
291
     1
 71
     1
176
     1
 72
     0
176
     1
 73
     1
176
     1
 90
        0
176
     1
 40
-0.6
176
     1
 41
-30.0
176
     1
 62
     5
 63
     7
421
 16777215
176
     1
 74
     0
176
     1
 91
        4
176
     1
 64
     7
176
     1
 65
   257
176
     1
 75
     1
176
     1
175
     1
176
     1
 42
1.0
176
     1
 92
        8
176
     1
 66
     7
176
     1
 43
1.0
176
     1
 76
     1
176
     1
 77
     6
176
     1
 78
     2
176
     1
 67
     7
176
     1
 79
     5
176
     1
170
     0
176
     1
171
     0
176
     1
290
     0
176
     1
 93
        1
176
     1
 44
0.0
176
     1
173
     0
176
     1
  0
VISUALSTYLE
  5
36
102
{ACAD_REACTORS
330
2A
102
}
330
2A
100
AcDbVisualStyle
  2
Brighten
 70
    12
177
     2
291
     1
 71
     2
176
     1
 72
     2
176
     1
 73
     0
176
     1
 90
        0
176
     1
 40
-0.6
176
     1
 41
-30.0
176
     1
 62
     5
 63
     7
421
 16777215
176
     1
 74
     1
176
     1
 91
        4
176
     1
 64
     7
176
     1
 65
   257
176
     1
 75
     1
176
     1
175
     1
176
     1
 42
1.0
176
     1
 92
        8
176
     1
 66
     7
176
     1
 43
1.0
176
     1
 76
     1
176
     1
 77
     6
176
     1
 78
     2
176
     1
 67
     7
176
     1
 79
     5
176
     1
170
     0
176
     1
171
     0
176
     1
290
     0
176
     1
 93
        1
176
     1
 44
50.0
176
     1
173
     0
176
     1
  0
VISUALSTYLE
  5
3A
102
{ACAD_REACTORS
330
2A
102
}
330
2A
100
AcDbVisualStyle
  2
ColorChange
 70
    16
177
     2
291
     1
 71
     2
176
     1
 72
     2
176
     1
 73
     3
176
     1
 90
        0
176
     1
 40
-0.6
176
     1
 41
-30.0
176
     1
 62
     5
 63
     8
421
  8421504
176
     1
 74
     1
176
     1
 91
        4
176
     1
 64
     7
176
     1
 65
   257
176
     1
 75
     1
176
     1
175
     1
176
     1
 42
1.0
176
     1
 92
        8
176
     1
 66
     8
424
  8421504
176
     1
 43
1.0
176
     1
 76
     1
176
     1
 77
     6
176
     1
 78
     2
176
     1
 67
     7
176
     1
 79
     5
176
     1
170
     0
176
     1
171
     0
176
     1
290
     0
176
     1
 93
        1
176
     1
 44
0.0
176
     1
173
     0
176
     1
  0
VISUALSTYLE
  5
34
102
{ACAD_REACTORS
330
2A
102
}
330
2A
100
AcDbVisualStyle
  2
Conceptual
 70
     9
177
     2
291
     0
 71
     3
176
     1
 72
     2
176
     1
 73
     0
176
     1
 90
        0
176
     1
 40
-0.6
176
     1
 41
-30.0
176
     1
 62
     5
 63
     7
421
 16777215
176
     1
 74
     2
176
     1
 91
        2
176
     1
 64
     7
176
     1
 65
   257
176
     1
 75
     1
176
     1
175
     1
176
     1
 42
40.0
176
     1
 92
        8
176
     1
 66
     7
176
     1
 43
1.0
176
     1
 76
     1
176
     1
 77
     6
176
     1
 78
     2
176
     1
 67
     7
176
     1
 79
     3
176
     1
170
     0
176
     1
171
     0
176
     1
290
     0
176
     1
 93
        1
176
     1
 44
0.0
176
     1
173
     0
176
     1
  0
VISUALSTYLE
  5
35
102
{ACAD_REACTORS
330
2A
102
}
330
2A
100
AcDbVisualStyle
  2
Dim
 70
    11
177
     2
291
     1
 71
     2
176
     1
 72
     2
176
     1
 73
     0
176
     1
 90
        0
176
     1
 40
-0.6
176
     1
 41
-30.0
176
     1
 62
     5
 63
     7
421
 16777215
176
     1
 74
     1
176
     1
 91
        4
176
     1
 64
     7
176
     1
 65
   257
176
     1
 75
     1
176
     1
175
     1
176
     1
 42
1.0
176
     1
 92
        8
176
     1
 66
     7
176
     1
 43
1.0
176
     1
 76
     1
176
     1
 77
     6
176
     1
 78
     2
176
     1
 67
     7
176
     1
 79
     5
176
     1
170
     0
176
     1
171
     0
176
     1
290
     0
176
     1
 93
        1
176
     1
 44
-50.0
176
     1
173
     0
176
     1
  0
VISUALSTYLE
  5
39
102
{ACAD_REACTORS
330
2A
102
}
330
2A
100
AcDbVisualStyle
  2
Facepattern
 70
    15
177
     2
291
     1
 71
     2
176
     1
 72
     2
176
     1
 73
     0
176
     1
 90
        0
176
     1
 40
-0.6
176
     1
 41
-30.0
176
     1
 62
     5
 63
     7
421
 16777215
176
     1
 74
     1
176
     1
 91
        4
176
     1
 64
     7
176
     1
 65
   257
176
     1
 75
     1
176
     1
175
     1
176
     1
 42
1.0
176
     1
 92
        8
176
     1
 66
     7
176
     1
 43
1.0
176
     1
 76
     1
176
     1
 77
     6
176
     1
 78
     2
176
     1
 67
     7
176
     1
 79
     5
176
     1
170
     0
176
     1
171
     0
176
     1
290
     0
176
     1
 93
        1
176
     1
 44
0.0
176
     1
173
     0
176
     1
  0
VISUALSTYLE
  5
2B
102
{ACAD_REACTORS
330
2A
102
}
330
2A
100
AcDbVisualStyle
  2
Flat
 70
     0
177
     2
291
     1
 71
     2
176
     1
 72
     1
176
     1
 73
     1
176
     1
 90
        2
176
     1
 40
-0.6
176
     1
 41
30.0
176
     1
 62
     5
 63
     7
421
 16777215
176
     1
 74
     0
176
     1
 91
        4
176
     1
 64
     7
176
     1
 65
   257
176
     1
 75
     1
176
     1
175
     1
176
     1
 42
1.0
176
     1
 92
        8
176
     1
 66
     7
176
     1
 43
1.0
176
     1
 76
     1
176
     1
 77
     6
176
     1
 78
     2
176
     1
 67
     7
176
     1
 79
     5
176
     1
170
     0
176
     1
171
     0
176
     1
290
     0
176
     1
 93
       13
176
     1
 44
0.0
176
     1
173
     0
176
     1
  0
VISUALSTYLE
  5
2C
102
{ACAD_REACTORS
330
2A
102
}
330
2A
100
AcDbVisualStyle
  2
FlatWithEdges
 70
     1
177
     2
291
     1
 71
     2
176
     1
 72
     1
176
     1
 73
     1
176
     1
 90
        2
176
     1
 40
-0.6
176
     1
 41
30.0
176
     1
 62
     5
 63
     7
421
 16777215
176
     1
 74
     1
176
     1
 91
        4
176
     1
 64
     7
176
     1
 65
   257
176
     1
 75
     1
176
     1
175
     1
176
     1
 42
1.0
176
     1
 92
        0
176
     1
 66
   257
176
     1
 43
1.0
176
     1
 76
     1
176
     1
 77
     6
176
     1
 78
     2
176
     1
 67
     7
176
     1
 79
     5
176
     1
170
     0
176
     1
171
     0
176
     1
290
     0
176
     1
 93
       13
176
     1
 44
0.0
176
     1
173
     0
176
     1
  0
VISUALSTYLE
  5
2D
102
{ACAD_REACTORS
330
2A
102
}
330
2A
100
AcDbVisualStyle
  2
Gouraud
 70
     2
177
     2
291
     1
 71
     2
176
     1
 72
     2
176
     1
 73
     1
176
     1
 90
        2
176
     1
 40
-0.6
176
     1
 41
30.0
176
     1
 62
     5
 63
     7
421
 16777215
176
     1
 74
     0
176
     1
 91
        4
176
     1
 64
     7
176
     1
 65
   257
176
     1
 75
     1
176
     1
175
     1
176
     1
 42
1.0
176
     1
 92
        0
176
     1
 66
     7
176
     1
 43
1.0
176
     1
 76
     1
176
     1
 77
     6
176
     1
 78
     2
176
     1
 67
     7
176
     1
 79
     5
176
     1
170
     0
176
     1
171
     0
176
     1
290
     0
176
     1
 93
       13
176
     1
 44
0.0
176
     1
173
     0
176
     1
  0
VISUALSTYLE
  5
2E
102
{ACAD_REACTORS
330
2A
102
}
330
2A
100
AcDbVisualStyle
  2
GouraudWithEdges
 70
     3
177
     2
291
     1
 71
     2
176
     1
 72
     2
176
     1
 73
     1
176
     1
 90
        2
176
     1
 40
-0.6
176
     1
 41
30.0
176
     1
 62
     5
 63
     7
421
 16777215
176
     1
 74
     1
176
     1
 91
        4
176
     1
 64
     7
176
     1
 65
   257
176
     1
 75
     1
176
     1
175
     1
176
     1
 42
1.0
176
     1
 92
        0
176
     1
 66
   257
176
     1
 43
1.0
176
     1
 76
     1
176
     1
 77
     6
176
     1
 78
     2
176
     1
 67
     7
176
     1
 79
     5
176
     1
170
     0
176
     1
171
     0
176
     1
290
     0
176
     1
 93
       13
176
     1
 44
0.0
176
     1
173
     0
176
     1
  0
VISUALSTYLE
  5
38
102
{ACAD_REACTORS
330
2A
102
}
330
2A
100
AcDbVisualStyle
  2
Linepattern
 70
    14
177
     2
291
     1
 71
     2
176
     1
 72
     2
176
     1
 73
     0
176
     1
 90
        0
176
     1
 40
-0.6
176
     1
 41
-30.0
176
     1
 62
     5
 63
     7
421
 16777215
176
     1
 74
     1
176
     1
 91
        4
176
     1
 64
     7
176
     1
 65
   257
176
     1
 75
     7
176
     1
175
     7
176
     1
 42
1.0
176
     1
 92
        8
176
     1
 66
     7
176
     1
 43
1.0
176
     1
 76
     1
176
     1
 77
     6
176
     1
 78
     2
176
     1
 67
     7
176
     1
 79
     5
176
     1
170
     0
176
     1
171
     0
176
     1
290
     0
176
     1
 93
        1
176
     1
 44
0.0
176
     1
173
     0
176
     1
  0
VISUALSTYLE
  5
33
102
{ACAD_REACTORS
330
2A
102
}
330
2A
100
AcDbVisualStyle
  2
Realistic
 70
     8
177
     2
291
     0
 71
     2
176
     1
 72
     2
176
     1
 73
     0
176
     1
 90
        0
176
     1
 40
-0.6
176
     1
 41
-30.0
176
     1
 62
     5
 63
     7
421
 16777215
176
     1
 74
     1
176
     1
 91
        0
176
     1
 64
     7
176
     1
 65
   257
176
     1
 75
     1
176
     1
175
     1
176
     1
 42
1.0
176
     1
 92
        8
176
     1
 66
     8
424
  7895160
176
     1
 43
1.0
176
     1
 76
     1
176
     1
 77
     6
176
     1
 78
     2
176
     1
 67
     7
176
     1
 79
     5
176
     1
170
     0
176
     1
171
     0
176
     1
290
     0
176
     1
 93
       13
176
     1
 44
0.0
176
     1
173
     0
176
     1
  0
VISUALSTYLE
  5
37
102
{ACAD_REACTORS
330
2A
102
}
330
2A
100
AcDbVisualStyle
  2
Thicken
 70
    13
177
     2
291
     1
 71
     2
176
     1
 72
     2
176
     1
 73
     0
176
     1
 90
        0
176
     1
 40
-0.6
176
     1
 41
-30.0
176
     1
 62
     5
 63
     7
421
 16777215
176
     1
 74
     1
176
     1
 91
        4
176
     1
 64
     7
176
     1
 65
   257
176
     1
 75
     1
176
     1
175
     1
176
     1
 42
1.0
176
     1
 92
       12
176
     1
 66
     7
176
     1
 43
1.0
176
     1
 76
     1
176
     1
 77
     6
176
     1
 78
     2
176
     1
 67
     7
176
     1
 79
     5
176
     1
170
     0
176
     1
171
     0
176
     1
290
     0
176
     1
 93
        1
176
     1
 44
0.0
176
     1
173
     0
176
     1
  0
ENDSEC
  0
EOF
