0
SECTION
2
HEADER
9
$INSUNITS
70
4
9
$ACADVER
1
AC1014
9
$HANDSEED
5
FFFF
0
ENDSEC
0
SECTION
2
TABLES
0
TABLE
2
VPORT
5
8
100
AcDbSymbolTable
0
ENDTAB
0
TABLE
2
LTYPE
5
5
100
AcDbSymbolTable
0
LTYPE
5
14
100
AcDbSymbolTableRecord
100
AcDbLinetypeTableRecord
2
BYBLOCK
70
0
0
LTYPE
5
15
100
AcDbSymbolTableRecord
100
AcDbLinetypeTableRecord
2
BYLAYER
70
0
0
ENDTAB
0
TABLE
2
LAYER
5
2
100
AcDbSymbolTable
70
2
0
LAYER
5
50
100
AcDbSymbolTableRecord
100
AcDbLayerTableRecord
2
0
70
0
6
CONTINUOUS
0
ENDTAB
0
TABLE
2
STYLE
5
3
100
AcDbSymbolTable
70
1
0
STYLE
5
11
100
AcDbSymbolTableRecord
100
AcDbTextStyleTableRecord
2
STANDARD
70
0
0
ENDTAB
0
TABLE
2
VIEW
5
6
100
AcDbSymbolTable
70
0
0
ENDTAB
0
TABLE
2
UCS
5
7
100
AcDbSymbolTable
70
0
0
ENDTAB
0
TABLE
2
APPID
5
9
100
AcDbSymbolTable
70
2
0
APPID
5
12
100
AcDbSymbolTableRecord
100
AcDbRegAppTableRecord
2
ACAD
70
0
0
ENDTAB
0
TABLE
2
DIMSTYLE
5
A
100
AcDbSymbolTable
70
1
0
ENDTAB
0
TABLE
2
BLOCK_RECORD
5
1
100
AcDbSymbolTable
70
1
0
BLOCK_RECORD
5
1F
100
AcDbSymbolTableRecord
100
AcDbBlockTableRecord
2
*MODEL_SPACE
0
BLOCK_RECORD
5
1B
100
AcDbSymbolTableRecord
100
AcDbBlockTableRecord
2
*PAPER_SPACE
0
ENDTAB
0
ENDSEC
0
SECTION
2
BLOCKS
0
BLOCK
5
20
100
AcDbEntity
100
AcDbBlockBegin
2
*MODEL_SPACE
0
ENDBLK
5
21
100
AcDbEntity
100
AcDbBlockEnd
0
BLOCK
5
1C
100
AcDbEntity
100
AcDbBlockBegin
2
*PAPER_SPACE
0
ENDBLK
5
1D
100
AcDbEntity
100
AcDbBlockEnd
0
ENDSEC
0
SECTION
2
ENTITIES
0
LWPOLYLINE
5
100
100
AcDbEntity
8
0
100
AcDbPolyline
90
4
70
1
43
0.0
10
-325.32553351882757
20
-17.59866289090607
10
-325.32553351882757
20
25.401337109093937
10
-75.325533518827484
20
25.401337109093941
10
-75.32553351882747
20
-17.598662890906066
0
LINE
5
101
100
AcDbEntity
8
0
100
AcDbLine
10
-75.32553351882747
20
-17.598662890906066
30
3.5527136788005009e-14
11
-99.32553351882747
21
-17.59866289090607
31
3.2055256629539364e-14
0
LINE
5
102
100
AcDbEntity
8
0
100
AcDbLine
10
-99.32553351882747
20
-17.59866289090607
30
3.2055256629539364e-14
11
-99.32553351882747
21
0.40133710909392983
31
3.2055256629539364e-14
0
LINE
5
103
100
AcDbEntity
8
0
100
AcDbLine
10
-99.32553351882747
20
0.40133710909392983
30
3.2055256629539364e-14
11
-151.32553351882748
21
0.40133710909394849
31
3.2055256629539364e-14
0
LINE
5
104
100
AcDbEntity
8
0
100
AcDbLine
10
-151.32553351882748
20
0.40133710909394849
30
3.2055256629539364e-14
11
-151.32553351882748
21
-17.59866289090607
31
3.2055256629539364e-14
0
LINE
5
105
100
AcDbEntity
8
0
100
AcDbLine
10
-171.32553351882748
20
-17.598662890906066
30
3.2055256629539364e-14
11
-171.32553351882748
21
0.40133710909393205
31
3.2055256629539364e-14
0
LINE
5
106
100
AcDbEntity
8
0
100
AcDbLine
10
-171.32553351882748
20
0.40133710909393205
30
3.2055256629539364e-14
11
-229.32553351882757
21
0.40133710909397369
31
3.2055256629539364e-14
0
LINE
5
107
100
AcDbEntity
8
0
100
AcDbLine
10
-229.32553351882757
20
0.40133710909397369
30
3.2055256629539364e-14
11
-229.32553351882757
21
-17.59866289090607
31
3.2055256629539364e-14
0
LINE
5
108
100
AcDbEntity
8
0
100
AcDbLine
10
-249.32553351882757
20
-17.59866289090607
30
3.2055256629539364e-14
11
-249.32553351882757
21
0.40133710909393172
31
3.2055256629539364e-14
0
LINE
5
109
100
AcDbEntity
8
0
100
AcDbLine
10
-249.32553351882757
20
0.40133710909393172
30
3.2055256629539364e-14
11
-301.32553351882757
21
0.4013371090938791
31
3.2055256629539364e-14
0
LINE
5
110
100
AcDbEntity
8
0
100
AcDbLine
10
-301.32553351882757
20
0.4013371090938791
30
3.2055256629539364e-14
11
-301.32553351882757
21
-17.59866289090607
31
3.2055256629539364e-14
0
LINE
5
111
100
AcDbEntity
8
0
100
AcDbLine
10
-301.32553351882757
20
-17.59866289090607
30
3.2055256629539364e-14
11
-325.32553351882757
21
-17.59866289090607
31
0
0
LINE
5
112
100
AcDbEntity
8
0
100
AcDbLine
10
-151.32553351882748
20
-17.59866289090607
30
3.2055256629539364e-14
11
-171.32553351882748
21
-17.598662890906066
31
3.2055256629539364e-14
0
LINE
5
113
100
AcDbEntity
8
0
100
AcDbLine
10
-229.32553351882757
20
-17.59866289090607
30
3.2055256629539364e-14
11
-249.32553351882757
21
-17.59866289090607
31
3.2055256629539364e-14
0
LINE
5
114
100
AcDbEntity
8
0
100
AcDbLine
10
-301.32553351882757
20
0.4013371090938791
30
3.2055256629539364e-14
11
-301.25147586525156
21
-1.0702882323400509
31
96.723712130384243
0
ENDSEC
0
SECTION
2
OBJECTS
0
DICTIONARY
5
C
100
AcDbDictionary
3
ACAD_GROUP
350
D
3
ACAD_MLINESTYLE
350
17
0
DICTIONARY
5
D
100
AcDbDictionary
0
DICTIONARY
5
1A
330
C
100
AcDbDictionary
0
DICTIONARY
5
17
100
AcDbDictionary
0
ENDSEC
0
EOF
