0
SECTION
2
HEADER
9
$INSUNITS
70
4
9
$ACADVER
1
AC1014
9
$HANDSEED
5
FFFF
0
ENDSEC
0
SECTION
2
TABLES
0
TABLE
2
VPORT
5
8
100
AcDbSymbolTable
0
ENDTAB
0
TABLE
2
LTYPE
5
5
100
AcDbSymbolTable
0
LTYPE
5
14
100
AcDbSymbolTableRecord
100
AcDbLinetypeTableRecord
2
BYBLOCK
70
0
0
LTYPE
5
15
100
AcDbSymbolTableRecord
100
AcDbLinetypeTableRecord
2
BYLAYER
70
0
0
ENDTAB
0
TABLE
2
LAYER
5
2
100
AcDbSymbolTable
70
2
0
LAYER
5
50
100
AcDbSymbolTableRecord
100
AcDbLayerTableRecord
2
0
70
0
6
CONTINUOUS
0
ENDTAB
0
TABLE
2
STYLE
5
3
100
AcDbSymbolTable
70
1
0
STYLE
5
11
100
AcDbSymbolTableRecord
100
AcDbTextStyleTableRecord
2
STANDARD
70
0
0
ENDTAB
0
TABLE
2
VIEW
5
6
100
AcDbSymbolTable
70
0
0
ENDTAB
0
TABLE
2
UCS
5
7
100
AcDbSymbolTable
70
0
0
ENDTAB
0
TABLE
2
APPID
5
9
100
AcDbSymbolTable
70
2
0
APPID
5
12
100
AcDbSymbolTableRecord
100
AcDbRegAppTableRecord
2
ACAD
70
0
0
ENDTAB
0
TABLE
2
DIMSTYLE
5
A
100
AcDbSymbolTable
70
1
0
ENDTAB
0
TABLE
2
BLOCK_RECORD
5
1
100
AcDbSymbolTable
70
1
0
BLOCK_RECORD
5
1F
100
AcDbSymbolTableRecord
100
AcDbBlockTableRecord
2
*MODEL_SPACE
0
BLOCK_RECORD
5
1B
100
AcDbSymbolTableRecord
100
AcDbBlockTableRecord
2
*PAPER_SPACE
0
ENDTAB
0
ENDSEC
0
SECTION
2
BLOCKS
0
BLOCK
5
20
100
AcDbEntity
100
AcDbBlockBegin
2
*MODEL_SPACE
0
ENDBLK
5
21
100
AcDbEntity
100
AcDbBlockEnd
0
BLOCK
5
1C
100
AcDbEntity
100
AcDbBlockBegin
2
*PAPER_SPACE
0
ENDBLK
5
1D
100
AcDbEntity
100
AcDbBlockEnd
0
ENDSEC
0
SECTION
2
ENTITIES
0
LWPOLYLINE
5
100
100
AcDbEntity
8
0
100
AcDbPolyline
90
3
70
1
43
0.0
10
199.18584287042091
20
114.99999999999993
10
0
20
-230
10
-199.18584287042083
20
115.00000000000009
0
LINE
5
101
100
AcDbEntity
8
0
100
AcDbLine
10
3.5527136788005009e-14
20
115.00000000000001
30
0
11
12.000000000000037
21
115.00000000000001
31
0
0
LINE
5
102
100
AcDbEntity
8
0
100
AcDbLine
10
3.5527136788005009e-14
20
115.00000000000001
30
0
11
-11.999999999999966
21
115.00000000000001
31
0
0
LINE
5
103
100
AcDbEntity
8
0
100
AcDbLine
10
12.000000000000037
20
115.00000000000001
30
0
11
25.000000000000036
21
115.00000000000001
31
0
0
LINE
5
104
100
AcDbEntity
8
0
100
AcDbLine
10
25.000000000000036
20
115.00000000000001
30
0
11
25.000000000000036
21
121.00000000000001
31
0
0
LINE
5
105
100
AcDbEntity
8
0
100
AcDbLine
10
25.000000000000036
20
121.00000000000001
30
0
11
12.000000000000037
21
121.00000000000001
31
0
0
LINE
5
106
100
AcDbEntity
8
0
100
AcDbLine
10
12.000000000000037
20
121.00000000000001
30
0
11
12.000000000000037
21
115.00000000000001
31
0
0
LINE
5
107
100
AcDbEntity
8
0
100
AcDbLine
10
-11.999999999999966
20
115.00000000000001
30
0
11
-24.999999999999968
21
115.00000000000001
31
0
0
LINE
5
108
100
AcDbEntity
8
0
100
AcDbLine
10
-24.999999999999968
20
115.00000000000001
30
0
11
-24.999999999999979
21
121.00000000000001
31
0
0
LINE
5
109
100
AcDbEntity
8
0
100
AcDbLine
10
-24.999999999999979
20
121.00000000000001
30
0
11
-11.999999999999972
21
121.00000000000001
31
0
0
LINE
5
110
100
AcDbEntity
8
0
100
AcDbLine
10
-11.999999999999972
20
121.00000000000001
30
0
11
-11.999999999999966
21
115.00000000000001
31
0
0
LINE
5
111
100
AcDbEntity
8
0
100
AcDbLine
10
1.4500000000000326
20
104.75000000000003
30
0
11
-1.4499999999999589
21
104.75000000000003
31
0
0
LINE
5
112
100
AcDbEntity
8
0
100
AcDbLine
10
-1.4499999999999589
20
104.75000000000003
30
0
11
-1.449999999999968
21
125.25000000000004
31
0
0
LINE
5
113
100
AcDbEntity
8
0
100
AcDbLine
10
-1.449999999999968
20
125.25000000000004
30
0
11
1.4500000000000324
21
125.25000000000004
31
0
0
LINE
5
114
100
AcDbEntity
8
0
100
AcDbLine
10
1.4500000000000324
20
125.25000000000004
30
0
11
1.4500000000000326
21
104.75000000000003
31
0
0
LINE
5
115
100
AcDbEntity
8
0
100
AcDbLine
10
1.4500000000000326
20
104.75000000000003
30
0
11
-1.449999999999968
21
125.25000000000004
31
0
0
LINE
5
116
100
AcDbEntity
8
0
100
AcDbLine
10
-1.4499999999999589
20
104.75000000000003
30
0
11
1.4500000000000324
21
125.25000000000004
31
0
0
LINE
5
117
100
AcDbEntity
8
0
100
AcDbLine
10
2.6499981038085849
20
108.25000000000003
30
0
11
-2.6500018961926184
21
108.25000000000004
31
0
0
LINE
5
118
100
AcDbEntity
8
0
100
AcDbLine
10
-2.6500018961926184
20
108.25000000000004
30
0
11
-2.6500018961926708
21
110.45000000000005
31
0
0
LINE
5
119
100
AcDbEntity
8
0
100
AcDbLine
10
-2.6500018961926708
20
110.45000000000005
30
0
11
2.6499981038073295
21
110.45000000000005
31
0
0
LINE
5
120
100
AcDbEntity
8
0
100
AcDbLine
10
2.6499981038073295
20
110.45000000000005
30
0
11
2.6499981038085849
21
108.25000000000003
31
0
0
LINE
5
121
100
AcDbEntity
8
0
100
AcDbLine
10
2.6499981038085849
20
108.25000000000003
30
0
11
-2.6500018961926708
21
110.45000000000005
31
0
0
LINE
5
122
100
AcDbEntity
8
0
100
AcDbLine
10
-2.6500018961926184
20
108.25000000000004
30
0
11
2.6499981038073295
21
110.45000000000005
31
0
0
LINE
5
123
100
AcDbEntity
8
0
100
AcDbLine
10
-95.072249011569824
20
-51.830034322121172
30
0
11
-94.327504899894961
21
-57.519968962179782
31
0
0
LINE
5
124
100
AcDbEntity
8
0
100
AcDbLine
10
-95.072249011569824
20
-51.830034322121172
30
0
11
-92.422249011569221
21
-56.419968962179752
31
0
0
LINE
5
125
100
AcDbEntity
8
0
100
AcDbLine
10
-87.092921435210485
20
-79.150635094610919
30
0
11
-92.289073857917117
21
-82.150635094610919
31
0
0
LINE
5
126
100
AcDbEntity
8
0
100
AcDbLine
10
-93.592921435210485
20
-67.892304845413221
30
0
11
-87.092921435210485
21
-79.150635094610919
31
0
0
LINE
5
127
100
AcDbEntity
8
0
100
AcDbLine
10
-99.592921435210485
20
-57.499999999999957
30
0
11
-105.59292143521049
21
-47.107695154586686
31
0
0
LINE
5
128
100
AcDbEntity
8
0
100
AcDbLine
10
-91.441161046420007
20
-51.119263164512525
30
0
11
-107.74468182400099
21
-63.880736835487404
31
0
0
LINE
5
129
100
AcDbEntity
8
0
100
AcDbLine
10
-98.789073857917089
20
-70.892304845413221
30
0
11
-93.592921435210485
21
-67.892304845413221
31
0
0
LINE
5
130
100
AcDbEntity
8
0
100
AcDbLine
10
-110.78907385791712
20
-50.107695154586679
30
0
11
-105.59292143521049
21
-47.107695154586686
31
0
0
LINE
5
131
100
AcDbEntity
8
0
100
AcDbLine
10
-92.289073857917117
20
-82.150635094610919
30
0
11
-98.789073857917089
21
-70.892304845413221
31
0
0
LINE
5
132
100
AcDbEntity
8
0
100
AcDbLine
10
-92.422249011569221
20
-56.419968962179752
30
0
11
-96.977504899894967
21
-52.930034322122268
31
0
0
LINE
5
133
100
AcDbEntity
8
0
100
AcDbLine
10
-117.28907385791712
20
-38.849364905388981
30
0
11
-110.78907385791712
21
-50.107695154586679
31
0
0
LINE
5
134
100
AcDbEntity
8
0
100
AcDbLine
10
-112.09292143521046
20
-35.849364905388974
30
0
11
-117.28907385791712
21
-38.849364905388981
31
0
0
LINE
5
135
100
AcDbEntity
8
0
100
AcDbLine
10
-94.327504899894961
20
-57.519968962179782
30
0
11
-96.977504899894967
21
-52.930034322122268
31
0
0
LINE
5
136
100
AcDbEntity
8
0
100
AcDbLine
10
-91.441161046420007
20
-51.119263164512525
30
0
11
-89.99116104641999
21
-53.630736835487383
31
0
0
LINE
5
137
100
AcDbEntity
8
0
100
AcDbLine
10
-89.99116104641999
20
-53.630736835487383
30
0
11
-107.74468182400099
21
-63.880736835487404
31
0
0
LINE
5
138
100
AcDbEntity
8
0
100
AcDbLine
10
-107.74468182400099
20
-63.880736835487404
30
0
11
-109.19468182400101
21
-61.369263164512525
31
0
0
LINE
5
139
100
AcDbEntity
8
0
100
AcDbLine
10
-109.19468182400101
20
-61.369263164512525
30
0
11
-91.441161046420007
21
-51.119263164512525
31
0
0
LINE
5
140
100
AcDbEntity
8
0
100
AcDbLine
10
-105.59292143521049
20
-47.107695154586686
30
0
11
-112.09292143521046
21
-35.849364905388974
31
0
0
LINE
5
141
100
AcDbEntity
8
0
100
AcDbLine
10
-99.592921435210485
20
-57.499999999999957
30
0
11
-93.592921435210485
21
-67.892304845413221
31
0
0
LINE
5
142
100
AcDbEntity
8
0
100
AcDbLine
10
-96.977504899894967
20
-52.930034322122268
30
0
11
-95.072249011569824
21
-51.830034322121172
31
0
0
LINE
5
143
100
AcDbEntity
8
0
100
AcDbLine
10
-89.99116104641999
20
-53.630736835487383
30
0
11
-109.19468182400101
21
-61.369263164512525
31
0
0
LINE
5
144
100
AcDbEntity
8
0
100
AcDbLine
10
-92.422249011569221
20
-56.419968962179752
30
0
11
-94.327504899894961
21
-57.519968962179782
31
0
0
LINE
5
145
100
AcDbEntity
8
0
100
AcDbLine
10
92.422250907761182
20
-56.419965677878885
30
0
11
96.977506796087653
21
-52.930031037820299
31
0
0
LINE
5
146
100
AcDbEntity
8
0
100
AcDbLine
10
92.422250907761182
20
-56.419965677878885
30
0
11
95.072250907761813
21
-51.830031037820341
31
0
0
LINE
5
147
100
AcDbEntity
8
0
100
AcDbLine
10
112.09292143521041
20
-35.84936490538913
30
0
11
117.28907385791706
21
-38.849364905389137
31
0
0
LINE
5
148
100
AcDbEntity
8
0
100
AcDbLine
10
105.59292143521041
20
-47.107695154586828
30
0
11
112.09292143521041
21
-35.84936490538913
31
0
0
LINE
5
149
100
AcDbEntity
8
0
100
AcDbLine
10
99.592921435210414
20
-57.500000000000064
30
0
11
93.592921435210428
21
-67.892304845413349
31
0
0
LINE
5
150
100
AcDbEntity
8
0
100
AcDbLine
10
89.991161046419933
20
-53.630736835487525
30
0
11
109.19468182400094
21
-61.369263164512667
31
0
0
LINE
5
151
100
AcDbEntity
8
0
100
AcDbLine
10
110.78907385791706
20
-50.107695154586828
30
0
11
105.59292143521041
21
-47.107695154586828
31
0
0
LINE
5
152
100
AcDbEntity
8
0
100
AcDbLine
10
98.789073857917032
20
-70.892304845413349
30
0
11
93.592921435210428
21
-67.892304845413349
31
0
0
LINE
5
153
100
AcDbEntity
8
0
100
AcDbLine
10
117.28907385791706
20
-38.849364905389137
30
0
11
110.78907385791706
21
-50.107695154586828
31
0
0
LINE
5
154
100
AcDbEntity
8
0
100
AcDbLine
10
95.072250907761813
20
-51.830031037820341
30
0
11
94.327506796087619
21
-57.519965677877821
31
0
0
LINE
5
155
100
AcDbEntity
8
0
100
AcDbLine
10
92.289073857917032
20
-82.150635094611047
30
0
11
98.789073857917032
21
-70.892304845413349
31
0
0
LINE
5
156
100
AcDbEntity
8
0
100
AcDbLine
10
87.092921435210386
20
-79.150635094611047
30
0
11
92.289073857917032
21
-82.150635094611047
31
0
0
LINE
5
157
100
AcDbEntity
8
0
100
AcDbLine
10
96.977506796087653
20
-52.930031037820299
30
0
11
94.327506796087619
21
-57.519965677877821
31
0
0
LINE
5
158
100
AcDbEntity
8
0
100
AcDbLine
10
89.991161046419933
20
-53.630736835487525
30
0
11
91.44116104641995
21
-51.119263164512674
31
0
0
LINE
5
159
100
AcDbEntity
8
0
100
AcDbLine
10
91.44116104641995
20
-51.119263164512674
30
0
11
109.19468182400094
21
-61.369263164512667
31
0
0
LINE
5
160
100
AcDbEntity
8
0
100
AcDbLine
10
109.19468182400094
20
-61.369263164512667
30
0
11
107.74468182400093
21
-63.880736835487539
31
0
0
LINE
5
161
100
AcDbEntity
8
0
100
AcDbLine
10
107.74468182400093
20
-63.880736835487539
30
0
11
89.991161046419933
21
-53.630736835487525
31
0
0
LINE
5
162
100
AcDbEntity
8
0
100
AcDbLine
10
93.592921435210428
20
-67.892304845413349
30
0
11
87.092921435210386
21
-79.150635094611047
31
0
0
LINE
5
163
100
AcDbEntity
8
0
100
AcDbLine
10
99.592921435210414
20
-57.500000000000064
30
0
11
105.59292143521041
21
-47.107695154586828
31
0
0
LINE
5
164
100
AcDbEntity
8
0
100
AcDbLine
10
94.327506796087619
20
-57.519965677877821
30
0
11
92.422250907761182
21
-56.419965677878885
31
0
0
LINE
5
165
100
AcDbEntity
8
0
100
AcDbLine
10
91.44116104641995
20
-51.119263164512674
30
0
11
107.74468182400093
21
-63.880736835487539
31
0
0
LINE
5
166
100
AcDbEntity
8
0
100
AcDbLine
10
95.072250907761813
20
-51.830031037820341
30
0
11
96.977506796087653
21
-52.930031037820299
31
0
0
LWPOLYLINE
5
167
100
AcDbEntity
8
0
100
AcDbPolyline
90
3
70
1
43
0.0
10
-157.18361078687562
20
-90.749999999999957
10
1.7763568394002505e-14
20
181.50000000000006
10
157.18361078687556
20
-90.750000000000028
0
LINE
5
168
100
AcDbEntity
8
0
100
AcDbLine
10
139.71861078687556
20
-121.00026735419047
30
0
11
82.127458364168973
21
-87.750000000000043
31
0
0
LINE
5
169
100
AcDbEntity
8
0
100
AcDbLine
10
174.64861078687557
20
-60.499732645809587
30
0
11
117.05745836416894
21
-27.249465291619135
31
0
0
LINE
5
170
100
AcDbEntity
8
0
100
AcDbLine
10
34.930000000000092
20
181.49999999999994
30
0
11
34.930000000000078
21
114.99946529161912
31
0
0
LINE
5
171
100
AcDbEntity
8
0
100
AcDbLine
10
-34.929999999999893
20
181.5
30
0
11
-34.929999999999929
21
114.9994652916191
31
0
0
LINE
5
172
100
AcDbEntity
8
0
100
AcDbLine
10
-174.64861078687559
20
-60.499732645809424
30
0
11
-117.05745836416901
21
-27.249465291619046
31
0
0
LINE
5
173
100
AcDbEntity
8
0
100
AcDbLine
10
-139.71861078687564
20
-121.00026735419033
30
0
11
-82.127458364169001
21
-87.749999999999915
31
0
0
LINE
5
174
100
AcDbEntity
8
0
100
AcDbLine
10
6.2500000000000515
20
-93.749997938051862
30
0
11
6.2500000000000515
21
-90.749997938051834
31
0
0
LINE
5
175
100
AcDbEntity
8
0
100
AcDbLine
10
6.2500000000000515
20
-90.749997938051834
30
0
11
-6.2499999999999822
21
-90.749997938051848
31
0
0
LINE
5
176
100
AcDbEntity
8
0
100
AcDbLine
10
-6.2499999999999822
20
-90.749997938051848
30
0
11
6.2500000000000515
21
-93.749997938051862
31
0
0
LINE
5
177
100
AcDbEntity
8
0
100
AcDbLine
10
6.2500000000000515
20
-90.749997938051834
30
0
11
-6.2499999999999485
21
-93.749997938051862
31
0
0
LINE
5
178
100
AcDbEntity
8
0
100
AcDbLine
10
-6.2499999999999822
20
-90.749997938051848
30
0
11
-6.2499999999999485
21
-93.749997938051862
31
0
0
LINE
5
179
100
AcDbEntity
8
0
100
AcDbLine
10
-6.2499999999999485
20
-93.749997938051862
30
0
11
6.2500000000000515
21
-93.749997938051862
31
0
0
LINE
5
180
100
AcDbEntity
8
0
100
AcDbLine
10
62.348084139934279
20
-83.197888654962583
30
0
11
62.351923932721348
21
-80.997892005876224
31
0
0
LINE
5
181
100
AcDbEntity
8
0
100
AcDbLine
10
67.648076067278765
20
-83.207139064858708
30
0
11
62.348084139934279
21
-83.197888654962583
31
0
0
LINE
5
182
100
AcDbEntity
8
0
100
AcDbLine
10
62.351923932721348
20
-80.997892005876224
30
0
11
67.648076067278765
21
-83.207139064858708
31
0
0
LINE
5
183
100
AcDbEntity
8
0
100
AcDbLine
10
67.651915860065856
20
-81.007142415772364
30
0
11
62.348084139934279
21
-83.197888654962583
31
0
0
LINE
5
184
100
AcDbEntity
8
0
100
AcDbLine
10
67.651915860065856
20
-81.007142415772364
30
0
11
67.648076067278765
21
-83.207139064858708
31
0
0
LINE
5
185
100
AcDbEntity
8
0
100
AcDbLine
10
62.351923932721348
20
-80.997892005876224
30
0
11
67.651915860065856
21
-81.007142415772364
31
0
0
LWPOLYLINE
5
186
100
AcDbEntity
8
0
100
AcDbPolyline
90
6
70
1
43
0.0
10
63.526876183816583
20
-103.99997775641313
10
66.473123816183403
20
-77.505079664728086
10
66.426871766703201
20
-104.00503930145052
10
63.573128233296785
20
-77.500018119690637
10
63.526876183816583
20
-103.99997775641313
10
66.426871766703201
20
-104.00503930145052
0
LINE
5
187
100
AcDbEntity
8
0
100
AcDbLine
10
-66.426871766695697
20
-77.50001811970489
30
0
11
-63.573128233296799
21
-104.00503930145052
31
0
0
LINE
5
188
100
AcDbEntity
8
0
100
AcDbLine
10
-67.651915860083264
20
-83.197888654980233
30
0
11
-67.648076067323572
21
-80.997892005889241
31
0
0
LINE
5
189
100
AcDbEntity
8
0
100
AcDbLine
10
-62.351923932750843
20
-83.207139064891436
30
0
11
-67.651915860083264
21
-83.197888654980233
31
0
0
LINE
5
190
100
AcDbEntity
8
0
100
AcDbLine
10
-63.573128233296799
20
-104.00503930145052
30
0
11
-66.473123816195709
21
-103.99997775641039
31
0
0
LINE
5
191
100
AcDbEntity
8
0
100
AcDbLine
10
-66.473123816195709
20
-103.99997775641039
30
0
11
-66.426871766695697
21
-77.50001811970489
31
0
0
LINE
5
192
100
AcDbEntity
8
0
100
AcDbLine
10
-63.526876183792744
20
-77.505079664745054
30
0
11
-63.573128233296799
21
-104.00503930145052
31
0
0
LINE
5
193
100
AcDbEntity
8
0
100
AcDbLine
10
-66.426871766695697
20
-77.50001811970489
30
0
11
-63.526876183792744
21
-77.505079664745054
31
0
0
LINE
5
194
100
AcDbEntity
8
0
100
AcDbLine
10
-63.526876183792744
20
-77.505079664745054
30
0
11
-66.473123816195709
21
-103.99997775641039
31
0
0
LINE
5
195
100
AcDbEntity
8
0
100
AcDbLine
10
-62.348084139976592
20
-81.007142415790241
30
0
11
-67.651915860083264
21
-83.197888654980233
31
0
0
LINE
5
196
100
AcDbEntity
8
0
100
AcDbLine
10
-67.648076067323572
20
-80.997892005889241
30
0
11
-62.351923932750843
21
-83.207139064891436
31
0
0
LINE
5
197
100
AcDbEntity
8
0
100
AcDbLine
10
-62.348084139976592
20
-81.007142415790241
30
0
11
-62.351923932750843
21
-83.207139064891436
31
0
0
LINE
5
198
100
AcDbEntity
8
0
100
AcDbLine
10
-67.648076067323572
20
-80.997892005889241
30
0
11
-62.348084139976592
21
-81.007142415790241
31
0
0
LINE
5
199
100
AcDbEntity
8
0
100
AcDbLine
10
103.97027016375034
20
-18.086006388499708
30
0
11
103.23545817279589
21
-12.394780568151415
31
0
0
LWPOLYLINE
5
200
100
AcDbEntity
8
0
100
AcDbPolyline
90
6
70
1
43
0.0
10
121.85757027330355
20
-3.0534243973555486
10
98.88480600390227
20
-16.263348765860645
10
100.33042036876657
20
-18.77734938403734
10
123.30318463816579
20
-5.5674250155287153
10
121.85757027330355
20
-3.0534243973555482
10
100.33042036876657
20
-18.77734938403734
0
LINE
5
201
100
AcDbEntity
8
0
100
AcDbLine
10
81.716803607738328
20
39.96234019537318
30
0
11
84.31487981909163
21
41.462340195373216
31
0
0
LINE
5
202
100
AcDbEntity
8
0
100
AcDbLine
10
36.328285290009873
20
99.091848957390567
30
0
11
38.235458172752836
21
100.18852192383484
31
0
0
LINE
5
203
100
AcDbEntity
8
0
100
AcDbLine
10
36.328285290009873
20
99.091848957390567
30
0
11
40.877443046459597
21
95.593969069954056
31
0
0
LINE
5
204
100
AcDbEntity
8
0
100
AcDbLine
10
101.32828529004657
20
-13.491453534614276
30
0
11
103.23545817279589
21
-12.394780568151415
31
0
0
LINE
5
205
100
AcDbEntity
8
0
100
AcDbLine
10
103.23545817279589
20
-12.394780568151415
30
0
11
105.87744304648362
21
-16.989333422029386
31
0
0
LWPOLYLINE
5
206
100
AcDbEntity
8
0
100
AcDbPolyline
90
6
70
1
43
0.0
10
56.857570273303509
20
109.52987809462147
10
35.330420368757999
20
93.80595310792603
10
33.884806003899534
20
96.319953726087249
10
58.303184638162065
20
107.01587747646033
10
56.857570273303509
20
109.52987809462147
10
33.884806003899534
20
96.319953726087249
0
LINE
5
207
100
AcDbEntity
8
0
100
AcDbLine
10
103.97027016375034
20
-18.086006388499708
30
0
11
101.32828529004657
21
-13.491453534614276
31
0
0
LINE
5
208
100
AcDbEntity
8
0
100
AcDbLine
10
38.970270163716641
20
94.497296103509697
30
0
11
38.235458172752836
21
100.18852192383484
31
0
0
LINE
5
209
100
AcDbEntity
8
0
100
AcDbLine
10
40.877443046459597
20
95.593969069954056
30
0
11
38.970270163716641
21
94.497296103509697
31
0
0
LINE
5
210
100
AcDbEntity
8
0
100
AcDbLine
10
105.87744304648362
20
-16.989333422029386
30
0
11
103.97027016375034
21
-18.086006388499708
31
0
0
LINE
5
211
100
AcDbEntity
8
0
100
AcDbLine
10
101.32828529004657
20
-13.491453534614276
30
0
11
105.87744304648362
21
-16.989333422029386
31
0
0
LINE
5
212
100
AcDbEntity
8
0
100
AcDbLine
10
75.466803607738328
20
50.787657742678725
30
0
11
84.31487981909163
21
41.462340195373216
31
0
0
LINE
5
213
100
AcDbEntity
8
0
100
AcDbLine
10
81.716803607738328
20
39.96234019537318
30
0
11
78.06487981909163
21
52.287657742678697
31
0
0
LINE
5
214
100
AcDbEntity
8
0
100
AcDbLine
10
75.466803607738328
20
50.787657742678725
30
0
11
81.716803607738328
21
39.96234019537318
31
0
0
LINE
5
215
100
AcDbEntity
8
0
100
AcDbLine
10
38.235458172752836
20
100.18852192383484
30
0
11
40.877443046459597
21
95.593969069954056
31
0
0
LINE
5
216
100
AcDbEntity
8
0
100
AcDbLine
10
84.31487981909163
20
41.462340195373216
30
0
11
78.06487981909163
21
52.287657742678697
31
0
0
LINE
5
217
100
AcDbEntity
8
0
100
AcDbLine
10
78.06487981909163
20
52.287657742678697
30
0
11
75.466803607738328
21
50.787657742678725
31
0
0
LINE
5
218
100
AcDbEntity
8
0
100
AcDbLine
10
38.970270163716641
20
94.497296103509697
30
0
11
36.328285290009873
21
99.091848957390567
31
0
0
LINE
5
219
100
AcDbEntity
8
0
100
AcDbLine
10
-36.322194096426742
20
99.083898394388967
30
0
11
-40.883534240045059
21
95.601919633042911
31
0
0
LWPOLYLINE
5
220
100
AcDbEntity
8
0
100
AcDbPolyline
90
6
70
1
43
0.0
10
-58.284442040006645
20
107.05846369880605
10
-35.357929820109504
20
93.768428430605667
10
-33.903548602070856
20
96.277367503742241
10
-56.830060821970029
20
109.56740277193913
10
-58.284442040006645
20
107.05846369880605
10
-33.903548602070856
20
96.277367503742241
0
LINE
5
221
100
AcDbEntity
8
0
100
AcDbLine
10
-75.466803607738314
20
50.787657742678689
30
0
11
-78.064879819091658
21
52.287657742678668
31
0
0
LINE
5
222
100
AcDbEntity
8
0
100
AcDbLine
10
-103.9802011500757
20
-18.084706541618147
30
0
11
-105.88353424003161
21
-16.981382858976104
31
0
0
LINE
5
223
100
AcDbEntity
8
0
100
AcDbLine
10
-103.9802011500757
20
-18.084706541618147
30
0
11
-103.22552718639386
21
-12.396080414991422
31
0
0
LINE
5
224
100
AcDbEntity
8
0
100
AcDbLine
10
-38.980201150069924
20
94.498595950404479
30
0
11
-40.883534240045059
21
95.601919633042911
31
0
0
LINE
5
225
100
AcDbEntity
8
0
100
AcDbLine
10
-40.883534240045059
20
95.601919633042911
30
0
11
-38.225527186400321
21
100.18722207700961
31
0
0
LWPOLYLINE
5
226
100
AcDbEntity
8
0
100
AcDbPolyline
90
6
70
1
43
0.0
10
-123.28444204000668
20
-5.5248387931709324
10
-98.903548602054784
20
-16.305934988235371
10
-100.3579298200829
20
-18.814874061359099
10
-121.83006082197869
20
-3.0158997200471527
10
-123.28444204000668
20
-5.5248387931709306
10
-100.3579298200829
20
-18.814874061359099
0
LINE
5
227
100
AcDbEntity
8
0
100
AcDbLine
10
-36.322194096426742
20
99.083898394388967
30
0
11
-38.980201150069924
21
94.498595950404479
31
0
0
LINE
5
228
100
AcDbEntity
8
0
100
AcDbLine
10
-101.32219409643798
20
-13.499404097633438
30
0
11
-105.88353424003161
21
-16.981382858976104
31
0
0
LINE
5
229
100
AcDbEntity
8
0
100
AcDbLine
10
-103.22552718639386
20
-12.396080414991422
30
0
11
-101.32219409643798
21
-13.499404097633438
31
0
0
LINE
5
230
100
AcDbEntity
8
0
100
AcDbLine
10
-38.225527186400321
20
100.18722207700961
30
0
11
-36.322194096426742
21
99.083898394388967
31
0
0
LINE
5
231
100
AcDbEntity
8
0
100
AcDbLine
10
-38.980201150069924
20
94.498595950404479
30
0
11
-38.225527186400321
21
100.18722207700961
31
0
0
LINE
5
232
100
AcDbEntity
8
0
100
AcDbLine
10
-81.716803607738342
20
39.96234019537318
30
0
11
-78.064879819091658
21
52.287657742678668
31
0
0
LINE
5
233
100
AcDbEntity
8
0
100
AcDbLine
10
-75.466803607738314
20
50.787657742678689
30
0
11
-84.314879819091658
21
41.46234019537318
31
0
0
LINE
5
234
100
AcDbEntity
8
0
100
AcDbLine
10
-81.716803607738342
20
39.96234019537318
30
0
11
-75.466803607738314
21
50.787657742678689
31
0
0
LINE
5
235
100
AcDbEntity
8
0
100
AcDbLine
10
-105.88353424003161
20
-16.981382858976104
30
0
11
-103.22552718639386
21
-12.396080414991422
31
0
0
LINE
5
236
100
AcDbEntity
8
0
100
AcDbLine
10
-78.064879819091658
20
52.287657742678668
30
0
11
-84.314879819091658
21
41.46234019537318
31
0
0
LINE
5
237
100
AcDbEntity
8
0
100
AcDbLine
10
-84.314879819091658
20
41.46234019537318
30
0
11
-81.716803607738342
21
39.96234019537318
31
0
0
LINE
5
238
100
AcDbEntity
8
0
100
AcDbLine
10
-101.32219409643798
20
-13.499404097633438
30
0
11
-103.9802011500757
21
-18.084706541618147
31
0
0
LWPOLYLINE
5
239
100
AcDbEntity
8
0
100
AcDbPolyline
90
6
70
1
43
0.0
10
-3.0715034320888308
20
-66.839998138099972
10
3.0715034320887469
20
-66.839998138099972
10
9.5031854308611656
20
-77.97999813809993
10
6.4316819987723886
20
-83.299998138099909
10
-6.4316819987724196
20
-83.299998138099909
10
-9.5031854308612491
20
-77.97999813809993
0
LINE
5
240
100
AcDbEntity
8
0
100
AcDbLine
10
-5.7734274175671988e-14
20
-66.839998138099972
30
0
11
0
21
-83.299998138099909
31
0
0
LINE
5
241
100
AcDbEntity
8
0
100
AcDbLine
10
-5.7734274175671988e-14
20
-66.839998138099972
30
0
11
-2.6646691038585681e-14
21
-75.069998138099947
31
0
0
LINE
5
242
100
AcDbEntity
8
0
100
AcDbLine
10
22.899999999999999
20
25.550000000000001
30
0
11
-22.899999999999999
21
25.550000000000001
31
0
0
LINE
5
243
100
AcDbEntity
8
0
100
AcDbLine
10
-22.899999999999999
20
25.550000000000001
30
0
11
-22.899999999999999
21
-25.549999999999997
31
0
0
LINE
5
244
100
AcDbEntity
8
0
100
AcDbLine
10
-22.899999999999999
20
-25.549999999999997
30
0
11
22.899999999999999
21
-25.549999999999997
31
0
0
LINE
5
245
100
AcDbEntity
8
0
100
AcDbLine
10
22.899999999999999
20
-25.549999999999997
30
0
11
22.899999999999999
21
25.550000000000001
31
0
0
LINE
5
246
100
AcDbEntity
8
0
100
AcDbLine
10
22.899999999999999
20
25.550000000000001
30
0
11
-22.899999999999999
21
-25.549999999999997
31
0
0
LINE
5
247
100
AcDbEntity
8
0
100
AcDbLine
10
-22.899999999999999
20
25.550000000000001
30
0
11
22.899999999999999
21
-25.549999999999997
31
0
0
CIRCLE
5
248
100
AcDbEntity
8
0
100
AcDbCircle
10
22.899999999999999
20
-25.549999999999997
30
0
40
1.5000000000000013
210
0
220
0
230
1
0
CIRCLE
5
249
100
AcDbEntity
8
0
100
AcDbCircle
10
-22.899999999999999
20
-25.549999999999997
30
0
40
1.4999999999999991
210
0
220
0
230
1
0
CIRCLE
5
250
100
AcDbEntity
8
0
100
AcDbCircle
10
22.899999999999999
20
25.550000000000001
30
0
40
1.5000000000000013
210
0
220
0
230
1
0
CIRCLE
5
251
100
AcDbEntity
8
0
100
AcDbCircle
10
-22.899999999999999
20
25.550000000000001
30
0
40
1.5000000000000016
210
0
220
0
230
1
0
LINE
5
252
100
AcDbEntity
8
0
100
AcDbLine
10
69.282032302755127
20
39.999999999999993
30
0
11
12.990381056766598
21
7.5000000000000044
31
0
0
LINE
5
253
100
AcDbEntity
8
0
100
AcDbLine
10
69.282032302755127
20
39.999999999999993
30
0
11
58.532032302755127
21
58.619546181365422
31
0
0
LINE
5
254
100
AcDbEntity
8
0
100
AcDbLine
10
69.282032302755127
20
39.999999999999993
30
0
11
80.032032302755113
21
21.380453818634557
31
0
0
LINE
5
255
100
AcDbEntity
8
0
100
AcDbLine
10
80.032032302755113
20
21.380453818634557
30
0
11
-32.551270189221967
21
-43.619546181365422
31
0
0
LINE
5
256
100
AcDbEntity
8
0
100
AcDbLine
10
-32.551270189221967
20
-43.619546181365422
30
0
11
-54.051270189221952
21
-6.3804538186345505
31
0
0
LINE
5
257
100
AcDbEntity
8
0
100
AcDbLine
10
80.032032302755113
20
21.380453818634557
30
0
11
58.381397208144143
21
8.8804538186345638
31
0
0
LINE
5
258
100
AcDbEntity
8
0
100
AcDbLine
10
58.532032302755127
20
58.619546181365422
30
0
11
36.881397208144158
21
46.119546181365422
31
0
0
LINE
5
259
100
AcDbEntity
8
0
100
AcDbLine
10
36.881397208144158
20
46.119546181365422
30
0
11
31.881397208144158
21
54.779800219209811
31
0
0
LINE
5
260
100
AcDbEntity
8
0
100
AcDbLine
10
58.381397208144143
20
8.8804538186345638
30
0
11
63.381397208144143
21
0.22019978079017344
31
0
0
LINE
5
261
100
AcDbEntity
8
0
100
AcDbLine
10
63.381397208144143
20
0.22019978079017344
30
0
11
60.78332099679082
21
-1.2798002192098279
31
0
0
LINE
5
262
100
AcDbEntity
8
0
100
AcDbLine
10
60.78332099679082
20
-1.2798002192098279
30
0
11
55.78332099679082
21
7.3804538186345603
31
0
0
LINE
5
263
100
AcDbEntity
8
0
100
AcDbLine
10
55.78332099679082
20
7.3804538186345603
30
0
11
58.381397208144143
21
8.8804538186345638
31
0
0
LINE
5
264
100
AcDbEntity
8
0
100
AcDbLine
10
36.881397208144158
20
46.119546181365422
30
0
11
34.283320996790835
21
44.619546181365415
31
0
0
LINE
5
265
100
AcDbEntity
8
0
100
AcDbLine
10
34.283320996790835
20
44.619546181365415
30
0
11
29.283320996790838
21
53.279800219209797
31
0
0
LINE
5
266
100
AcDbEntity
8
0
100
AcDbLine
10
31.881397208144158
20
54.779800219209811
30
0
11
29.283320996790838
21
53.279800219209797
31
0
0
LINE
5
267
100
AcDbEntity
8
0
100
AcDbLine
10
-32.551270189221967
20
-43.619546181365422
30
0
11
-15.230762113533199
21
-33.619546181365429
31
0
0
LINE
5
268
100
AcDbEntity
8
0
100
AcDbLine
10
-54.051270189221952
20
-6.3804538186345505
30
0
11
-36.730762113533181
21
3.6195461813654415
31
0
0
LINE
5
269
100
AcDbEntity
8
0
100
AcDbLine
10
-15.230762113533199
20
-33.619546181365429
30
0
11
-10.230762113533201
21
-42.279800219209818
31
0
0
LINE
5
270
100
AcDbEntity
8
0
100
AcDbLine
10
-10.230762113533201
20
-42.279800219209818
30
0
11
-12.828838324886515
21
-43.779800219209818
31
0
0
LINE
5
271
100
AcDbEntity
8
0
100
AcDbLine
10
-15.230762113533199
20
-33.619546181365429
30
0
11
-17.828838324886512
21
-35.119546181365429
31
0
0
LINE
5
272
100
AcDbEntity
8
0
100
AcDbLine
10
-12.828838324886515
20
-43.779800219209818
30
0
11
-17.828838324886512
21
-35.119546181365429
31
0
0
LINE
5
273
100
AcDbEntity
8
0
100
AcDbLine
10
-36.730762113533181
20
3.6195461813654415
30
0
11
-41.730762113533181
21
12.279800219209829
31
0
0
LINE
5
274
100
AcDbEntity
8
0
100
AcDbLine
10
-36.730762113533181
20
3.6195461813654415
30
0
11
-39.328838324886497
21
2.1195461813654419
31
0
0
LINE
5
275
100
AcDbEntity
8
0
100
AcDbLine
10
-39.328838324886497
20
2.1195461813654419
30
0
11
-44.32883832488649
21
10.779800219209829
31
0
0
LINE
5
276
100
AcDbEntity
8
0
100
AcDbLine
10
-44.32883832488649
20
10.779800219209829
30
0
11
-41.730762113533181
21
12.279800219209829
31
0
0
LINE
5
277
100
AcDbEntity
8
0
100
AcDbLine
10
-39.328838324886497
20
2.1195461813654419
30
0
11
36.881397208144158
21
46.119546181365422
31
0
0
ENDSEC
0
SECTION
2
OBJECTS
0
DICTIONARY
5
C
100
AcDbDictionary
3
ACAD_GROUP
350
D
3
ACAD_MLINESTYLE
350
17
0
DICTIONARY
5
D
100
AcDbDictionary
0
DICTIONARY
5
1A
330
C
100
AcDbDictionary
0
DICTIONARY
5
17
100
AcDbDictionary
0
ENDSEC
0
EOF
