0
SECTION
2
HEADER
9
$INSUNITS
70
4
9
$ACADVER
1
AC1014
9
$HANDSEED
5
FFFF
0
ENDSEC
0
SECTION
2
TABLES
0
TABLE
2
VPORT
5
8
100
AcDbSymbolTable
0
ENDTAB
0
TABLE
2
LTYPE
5
5
100
AcDbSymbolTable
0
LTYPE
5
14
100
AcDbSymbolTableRecord
100
AcDbLinetypeTableRecord
2
BYBLOCK
70
0
0
LTYPE
5
15
100
AcDbSymbolTableRecord
100
AcDbLinetypeTableRecord
2
BYLAYER
70
0
0
ENDTAB
0
TABLE
2
LAYER
5
2
100
AcDbSymbolTable
70
2
0
LAYER
5
50
100
AcDbSymbolTableRecord
100
AcDbLayerTableRecord
2
0
70
0
6
CONTINUOUS
0
ENDTAB
0
TABLE
2
STYLE
5
3
100
AcDbSymbolTable
70
1
0
STYLE
5
11
100
AcDbSymbolTableRecord
100
AcDbTextStyleTableRecord
2
STANDARD
70
0
0
ENDTAB
0
TABLE
2
VIEW
5
6
100
AcDbSymbolTable
70
0
0
ENDTAB
0
TABLE
2
UCS
5
7
100
AcDbSymbolTable
70
0
0
ENDTAB
0
TABLE
2
APPID
5
9
100
AcDbSymbolTable
70
2
0
APPID
5
12
100
AcDbSymbolTableRecord
100
AcDbRegAppTableRecord
2
ACAD
70
0
0
ENDTAB
0
TABLE
2
DIMSTYLE
5
A
100
AcDbSymbolTable
70
1
0
ENDTAB
0
TABLE
2
BLOCK_RECORD
5
1
100
AcDbSymbolTable
70
1
0
BLOCK_RECORD
5
1F
100
AcDbSymbolTableRecord
100
AcDbBlockTableRecord
2
*MODEL_SPACE
0
BLOCK_RECORD
5
1B
100
AcDbSymbolTableRecord
100
AcDbBlockTableRecord
2
*PAPER_SPACE
0
ENDTAB
0
ENDSEC
0
SECTION
2
BLOCKS
0
BLOCK
5
20
100
AcDbEntity
100
AcDbBlockBegin
2
*MODEL_SPACE
0
ENDBLK
5
21
100
AcDbEntity
100
AcDbBlockEnd
0
BLOCK
5
1C
100
AcDbEntity
100
AcDbBlockBegin
2
*PAPER_SPACE
0
ENDBLK
5
1D
100
AcDbEntity
100
AcDbBlockEnd
0
ENDSEC
0
SECTION
2
ENTITIES
0
LINE
5
100
100
AcDbEntity
8
0
100
AcDbLine
10
135.07000000000002
20
27.500000000000004
30
0
11
-36.929999999999971
21
-27.499999999999996
31
0
0
LINE
5
101
100
AcDbEntity
8
0
100
AcDbLine
10
-36.929999999999971
20
-27.499999999999996
30
0
11
135.07000000000002
21
-27.499999999999996
31
0
0
LINE
5
102
100
AcDbEntity
8
0
100
AcDbLine
10
135.07000000000002
20
-27.499999999999996
30
0
11
135.07000000000002
21
27.500000000000004
31
0
0
LINE
5
103
100
AcDbEntity
8
0
100
AcDbLine
10
135.07000000000002
20
27.500000000000004
30
0
11
-36.929999999999971
21
27.500000000000004
31
0
0
LINE
5
104
100
AcDbEntity
8
0
100
AcDbLine
10
49.07
20
-4.4408920985006262e-15
30
0
11
49.07
21
-8.4250000000000043
31
0
0
LINE
5
105
100
AcDbEntity
8
0
100
AcDbLine
10
49.07
20
-4.4408920985006262e-15
30
0
11
49.07
21
8.4249999999999954
31
0
0
LINE
5
106
100
AcDbEntity
8
0
100
AcDbLine
10
-36.929999999999971
20
27.500000000000004
30
0
11
135.07000000000002
21
-27.499999999999996
31
0
0
LINE
5
107
100
AcDbEntity
8
0
100
AcDbLine
10
-36.929999999999971
20
27.500000000000004
30
0
11
-36.929999999999971
21
-27.499999999999996
31
0
0
LWPOLYLINE
5
108
100
AcDbEntity
8
0
100
AcDbPolyline
90
6
70
1
43
0.0
10
-26.929999999999996
20
-3.637499999999978
10
-18.890397501534476
20
10.287499999999952
10
-11.211638921312503
20
10.287499999999952
10
-3.1720364228469671
20
-3.6374999999999948
10
-7.0114157129579358
20
-10.287499999999961
10
-23.090620709888956
20
-10.287499999999961
0
LINE
5
109
100
AcDbEntity
8
0
100
AcDbLine
10
-15.051018211423507
20
10.287499999999952
30
0
11
-15.051018211423436
21
-10.287499999999961
31
0
0
LINE
5
110
100
AcDbEntity
8
0
100
AcDbLine
10
-15.051018211423507
20
10.287499999999952
30
0
11
-15.051018211423472
21
-4.4408920985006262e-15
31
0
0
LINE
5
111
100
AcDbEntity
8
0
100
AcDbLine
10
113.19112742146092
20
-10.287499999999969
30
0
11
113.19112742146086
21
10.287499999999943
31
0
0
LWPOLYLINE
5
112
100
AcDbEntity
8
0
100
AcDbPolyline
90
6
70
1
43
0.0
10
105.15152492299536
20
10.287499999999943
10
121.23072991992638
20
10.287499999999941
10
125.07010921003742
20
3.6374999999999602
10
117.03050671157189
20
-10.287499999999971
10
109.35174813134992
20
-10.287499999999969
10
101.31214563288439
20
3.6374999999999802
0
LINE
5
113
100
AcDbEntity
8
0
100
AcDbLine
10
113.19112742146092
20
-10.287499999999969
30
0
11
113.19112742146089
21
-1.2383292537916209e-14
31
0
0
LWPOLYLINE
5
114
100
AcDbEntity
8
0
100
AcDbPolyline
90
6
70
1
43
0.0
10
28.209379290111045
20
-10.287499999999961
10
24.370000000000005
20
-3.637499999999978
10
32.409602498465524
20
10.287499999999952
10
40.088361078687491
20
10.287499999999952
10
48.127963577153032
20
-3.6374999999999948
10
44.288584287042063
20
-10.287499999999961
0
LINE
5
115
100
AcDbEntity
8
0
100
AcDbLine
10
36.248981788576494
20
10.287499999999952
30
0
11
36.248981788576565
21
-10.287499999999961
31
0
0
LINE
5
116
100
AcDbEntity
8
0
100
AcDbLine
10
36.248981788576494
20
10.287499999999952
30
0
11
36.248981788576529
21
-4.4408920985006262e-15
31
0
0
LWPOLYLINE
5
117
100
AcDbEntity
8
0
100
AcDbPolyline
90
6
70
1
43
0.0
10
79.509379290111042
20
-10.287499999999961
10
75.670000000000002
20
-3.637499999999978
10
83.709602498465529
20
10.287499999999952
10
91.388361078687495
20
10.287499999999952
10
99.427963577153022
20
-3.6374999999999948
10
95.588584287042067
20
-10.287499999999961
0
LINE
5
118
100
AcDbEntity
8
0
100
AcDbLine
10
87.548981788576498
20
10.287499999999952
30
0
11
87.548981788576569
21
-10.287499999999961
31
0
0
LINE
5
119
100
AcDbEntity
8
0
100
AcDbLine
10
87.548981788576498
20
10.287499999999952
30
0
11
87.548981788576526
21
-4.4408920985006262e-15
31
0
0
LINE
5
120
100
AcDbEntity
8
0
100
AcDbLine
10
61.891127421460929
20
-10.287499999999969
30
0
11
61.891127421460858
21
10.287499999999943
31
0
0
LINE
5
121
100
AcDbEntity
8
0
100
AcDbLine
10
61.891127421460929
20
-10.287499999999969
30
0
11
61.891127421460894
21
-1.2383292537916209e-14
31
0
0
LWPOLYLINE
5
122
100
AcDbEntity
8
0
100
AcDbPolyline
90
6
70
1
43
0.0
10
53.851524922995367
20
10.287499999999943
10
69.930729919926378
20
10.287499999999941
10
73.770109210037418
20
3.6374999999999602
10
65.730506711571891
20
-10.287499999999971
10
58.051748131349925
20
-10.287499999999969
10
50.012145632884398
20
3.6374999999999802
0
LINE
5
123
100
AcDbEntity
8
0
100
AcDbLine
10
10.591127421460929
20
-10.287499999999969
30
0
11
10.591127421460858
21
10.287499999999943
31
0
0
LINE
5
124
100
AcDbEntity
8
0
100
AcDbLine
10
10.591127421460929
20
-10.287499999999969
30
0
11
10.591127421460893
21
-1.2383292537916209e-14
31
0
0
LWPOLYLINE
5
125
100
AcDbEntity
8
0
100
AcDbPolyline
90
6
70
1
43
0.0
10
2.5515249229953696
20
10.287499999999943
10
18.630729919926381
20
10.287499999999941
10
22.470109210037421
20
3.6374999999999602
10
14.430506711571898
20
-10.287499999999971
10
6.7517481313499239
20
-10.287499999999969
10
-1.2878543671155995
20
3.6374999999999802
0
LINE
5
126
100
AcDbEntity
8
0
100
AcDbLine
10
55.32
20
23.250000000000028
30
0
11
42.82
21
23.250000000000028
31
0
0
LINE
5
127
100
AcDbEntity
8
0
100
AcDbLine
10
42.82
20
23.250000000000028
30
0
11
42.82
21
20.250000000000028
31
0
0
LINE
5
128
100
AcDbEntity
8
0
100
AcDbLine
10
42.82
20
20.250000000000028
30
0
11
55.32
21
20.250000000000028
31
0
0
LINE
5
129
100
AcDbEntity
8
0
100
AcDbLine
10
55.32
20
20.250000000000028
30
0
11
55.32
21
23.250000000000028
31
0
0
LINE
5
130
100
AcDbEntity
8
0
100
AcDbLine
10
55.32
20
23.250000000000028
30
0
11
42.82
21
20.250000000000028
31
0
0
LINE
5
131
100
AcDbEntity
8
0
100
AcDbLine
10
42.82
20
23.250000000000028
30
0
11
55.32
21
20.250000000000028
31
0
0
CIRCLE
5
132
100
AcDbEntity
8
0
100
AcDbCircle
10
-15.930000000000003
20
21.750000000000028
30
0
40
1.4500000000000002
210
0
220
0
230
1
0
CIRCLE
5
133
100
AcDbEntity
8
0
100
AcDbCircle
10
114.06999999999999
20
21.500000298023224
30
0
40
1.4499999999999948
210
0
220
0
230
1
0
LINE
5
134
100
AcDbEntity
8
0
100
AcDbLine
10
1.75
20
0
30
0
11
22.5
21
0
31
0
0
LINE
5
135
100
AcDbEntity
8
0
100
AcDbLine
10
55.32
20
-20.250000000000028
30
0
11
55.32
21
-23.250000000000028
31
0
0
LINE
5
136
100
AcDbEntity
8
0
100
AcDbLine
10
42.82
20
-23.250000000000028
30
0
11
55.32
21
-20.250000000000028
31
0
0
LINE
5
137
100
AcDbEntity
8
0
100
AcDbLine
10
42.82
20
-20.250000000000028
30
0
11
55.32
21
-20.250000000000028
31
0
0
LINE
5
138
100
AcDbEntity
8
0
100
AcDbLine
10
55.32
20
-23.250000000000028
30
0
11
42.82
21
-20.250000000000028
31
0
0
LINE
5
139
100
AcDbEntity
8
0
100
AcDbLine
10
55.32
20
-23.250000000000028
30
0
11
42.82
21
-23.250000000000028
31
0
0
CIRCLE
5
140
100
AcDbEntity
8
0
100
AcDbCircle
10
-15.930000000000003
20
-21.750000000000028
30
0
40
1.4500000000000002
210
0
220
0
230
1
0
CIRCLE
5
141
100
AcDbEntity
8
0
100
AcDbCircle
10
114.06999999999999
20
-21.500000298023224
30
0
40
1.4499999999999948
210
0
220
0
230
1
0
LINE
5
142
100
AcDbEntity
8
0
100
AcDbLine
10
42.82
20
-23.250000000000028
30
0
11
42.82
21
-20.250000000000028
31
0
0
ENDSEC
0
SECTION
2
OBJECTS
0
DICTIONARY
5
C
100
AcDbDictionary
3
ACAD_GROUP
350
D
3
ACAD_MLINESTYLE
350
17
0
DICTIONARY
5
D
100
AcDbDictionary
0
DICTIONARY
5
1A
330
C
100
AcDbDictionary
0
DICTIONARY
5
17
100
AcDbDictionary
0
ENDSEC
0
EOF
