ISO-10303-21;
HEADER;
/* Generated by software containing ST-Developer
 * from STEP Tools, Inc. (www.steptools.com) 
 */

FILE_DESCRIPTION(
/* description */ (''),
/* implementation_level */ '2;1');

FILE_NAME(
/* name */ '/Users/krockmitaine/Desktop/BaseMkII.step',
/* time_stamp */ '2018-08-29T16:22:29-04:00',
/* author */ ('extremevr@gmail.com'),
/* organization */ (''),
/* preprocessor_version */ 'ST-DEVELOPER v17.2',
/* originating_system */ 'Autodesk Translation Framework v7.6.0.251',
/* authorisation */ '');

FILE_SCHEMA (('AUTOMOTIVE_DESIGN { 1 0 10303 214 3 1 1 }'));
ENDSEC;

DATA;
#10=MECHANICAL_DESIGN_GEOMETRIC_PRESENTATION_REPRESENTATION('',(#17),#518);
#11=SHAPE_REPRESENTATION_RELATIONSHIP('SRR','None',#528,#12);
#12=ADVANCED_BREP_SHAPE_REPRESENTATION('',(#18),#516);
#13=ITEM_DEFINED_TRANSFORMATION($,$,#298,#334);
#14=(
REPRESENTATION_RELATIONSHIP($,$,#529,#528)
REPRESENTATION_RELATIONSHIP_WITH_TRANSFORMATION(#13)
SHAPE_REPRESENTATION_RELATIONSHIP()
);
#15=CONTEXT_DEPENDENT_SHAPE_REPRESENTATION(#14,#527);
#16=NEXT_ASSEMBLY_USAGE_OCCURRENCE('Top base:1','Top base:1',
'Top base:1',#531,#532,'Top base:1');
#17=STYLED_ITEM('',(#544),#18);
#18=MANIFOLD_SOLID_BREP('Body1',#284);
#19=FACE_BOUND('',#44,.T.);
#20=FACE_BOUND('',#57,.T.);
#21=PLANE('',#302);
#22=PLANE('',#303);
#23=PLANE('',#319);
#24=PLANE('',#326);
#25=PLANE('',#333);
#26=FACE_OUTER_BOUND('',#41,.T.);
#27=FACE_OUTER_BOUND('',#42,.T.);
#28=FACE_OUTER_BOUND('',#43,.T.);
#29=FACE_OUTER_BOUND('',#45,.T.);
#30=FACE_OUTER_BOUND('',#46,.T.);
#31=FACE_OUTER_BOUND('',#47,.T.);
#32=FACE_OUTER_BOUND('',#48,.T.);
#33=FACE_OUTER_BOUND('',#49,.T.);
#34=FACE_OUTER_BOUND('',#50,.T.);
#35=FACE_OUTER_BOUND('',#51,.T.);
#36=FACE_OUTER_BOUND('',#52,.T.);
#37=FACE_OUTER_BOUND('',#53,.T.);
#38=FACE_OUTER_BOUND('',#54,.T.);
#39=FACE_OUTER_BOUND('',#55,.T.);
#40=FACE_OUTER_BOUND('',#56,.T.);
#41=EDGE_LOOP('',(#181,#182,#183,#184));
#42=EDGE_LOOP('',(#185,#186,#187,#188));
#43=EDGE_LOOP('',(#189,#190,#191,#192,#193,#194,#195,#196,#197,#198,#199,
#200));
#44=EDGE_LOOP('',(#201));
#45=EDGE_LOOP('',(#202,#203,#204,#205));
#46=EDGE_LOOP('',(#206,#207,#208,#209));
#47=EDGE_LOOP('',(#210,#211,#212,#213));
#48=EDGE_LOOP('',(#214,#215,#216,#217));
#49=EDGE_LOOP('',(#218,#219,#220,#221));
#50=EDGE_LOOP('',(#222,#223,#224,#225));
#51=EDGE_LOOP('',(#226,#227,#228,#229));
#52=EDGE_LOOP('',(#230,#231,#232,#233));
#53=EDGE_LOOP('',(#234,#235,#236,#237));
#54=EDGE_LOOP('',(#238,#239,#240,#241));
#55=EDGE_LOOP('',(#242,#243,#244,#245));
#56=EDGE_LOOP('',(#246,#247,#248,#249,#250,#251,#252,#253,#254,#255,#256,
#257));
#57=EDGE_LOOP('',(#258));
#58=LINE('',#437,#77);
#59=LINE('',#440,#78);
#60=LINE('',#443,#79);
#61=LINE('',#445,#80);
#62=LINE('',#446,#81);
#63=LINE('',#453,#82);
#64=LINE('',#461,#83);
#65=LINE('',#472,#84);
#66=LINE('',#475,#85);
#67=LINE('',#480,#86);
#68=LINE('',#483,#87);
#69=LINE('',#484,#88);
#70=LINE('',#488,#89);
#71=LINE('',#491,#90);
#72=LINE('',#496,#91);
#73=LINE('',#499,#92);
#74=LINE('',#500,#93);
#75=LINE('',#504,#94);
#76=LINE('',#508,#95);
#77=VECTOR('',#343,10.);
#78=VECTOR('',#346,10.);
#79=VECTOR('',#349,10.);
#80=VECTOR('',#350,10.);
#81=VECTOR('',#351,10.);
#82=VECTOR('',#358,10.);
#83=VECTOR('',#365,10.);
#84=VECTOR('',#378,10.);
#85=VECTOR('',#381,10.);
#86=VECTOR('',#388,10.);
#87=VECTOR('',#391,10.);
#88=VECTOR('',#392,10.);
#89=VECTOR('',#397,10.);
#90=VECTOR('',#400,10.);
#91=VECTOR('',#407,10.);
#92=VECTOR('',#410,10.);
#93=VECTOR('',#411,10.);
#94=VECTOR('',#416,10.);
#95=VECTOR('',#421,81.184);
#96=CIRCLE('',#300,25.4);
#97=CIRCLE('',#301,25.4);
#98=CIRCLE('',#304,1570.5725882065);
#99=CIRCLE('',#305,25.4);
#100=CIRCLE('',#306,25.4);
#101=CIRCLE('',#307,1570.5725882065);
#102=CIRCLE('',#308,25.4);
#103=CIRCLE('',#309,25.4);
#104=CIRCLE('',#310,1570.57258820651);
#105=CIRCLE('',#311,25.4);
#106=CIRCLE('',#312,81.184);
#107=CIRCLE('',#314,25.4);
#108=CIRCLE('',#316,1570.57258820651);
#109=CIRCLE('',#318,25.4);
#110=CIRCLE('',#321,25.4);
#111=CIRCLE('',#323,1570.5725882065);
#112=CIRCLE('',#325,25.4);
#113=CIRCLE('',#328,25.4);
#114=CIRCLE('',#330,81.184);
#115=CIRCLE('',#332,1570.5725882065);
#116=VERTEX_POINT('',#433);
#117=VERTEX_POINT('',#434);
#118=VERTEX_POINT('',#436);
#119=VERTEX_POINT('',#438);
#120=VERTEX_POINT('',#442);
#121=VERTEX_POINT('',#444);
#122=VERTEX_POINT('',#448);
#123=VERTEX_POINT('',#450);
#124=VERTEX_POINT('',#452);
#125=VERTEX_POINT('',#454);
#126=VERTEX_POINT('',#456);
#127=VERTEX_POINT('',#458);
#128=VERTEX_POINT('',#460);
#129=VERTEX_POINT('',#462);
#130=VERTEX_POINT('',#464);
#131=VERTEX_POINT('',#467);
#132=VERTEX_POINT('',#470);
#133=VERTEX_POINT('',#474);
#134=VERTEX_POINT('',#478);
#135=VERTEX_POINT('',#482);
#136=VERTEX_POINT('',#486);
#137=VERTEX_POINT('',#490);
#138=VERTEX_POINT('',#494);
#139=VERTEX_POINT('',#498);
#140=VERTEX_POINT('',#502);
#141=VERTEX_POINT('',#506);
#142=EDGE_CURVE('',#116,#117,#96,.T.);
#143=EDGE_CURVE('',#117,#118,#58,.T.);
#144=EDGE_CURVE('',#118,#119,#97,.T.);
#145=EDGE_CURVE('',#119,#116,#59,.T.);
#146=EDGE_CURVE('',#120,#119,#60,.T.);
#147=EDGE_CURVE('',#121,#120,#61,.T.);
#148=EDGE_CURVE('',#116,#121,#62,.T.);
#149=EDGE_CURVE('',#122,#118,#98,.T.);
#150=EDGE_CURVE('',#123,#122,#99,.T.);
#151=EDGE_CURVE('',#123,#124,#63,.T.);
#152=EDGE_CURVE('',#125,#124,#100,.T.);
#153=EDGE_CURVE('',#126,#125,#101,.T.);
#154=EDGE_CURVE('',#127,#126,#102,.T.);
#155=EDGE_CURVE('',#127,#128,#64,.T.);
#156=EDGE_CURVE('',#129,#128,#103,.T.);
#157=EDGE_CURVE('',#130,#129,#104,.T.);
#158=EDGE_CURVE('',#120,#130,#105,.T.);
#159=EDGE_CURVE('',#131,#131,#106,.T.);
#160=EDGE_CURVE('',#132,#121,#107,.T.);
#161=EDGE_CURVE('',#130,#132,#65,.T.);
#162=EDGE_CURVE('',#133,#129,#66,.T.);
#163=EDGE_CURVE('',#132,#133,#108,.T.);
#164=EDGE_CURVE('',#134,#133,#109,.T.);
#165=EDGE_CURVE('',#128,#134,#67,.T.);
#166=EDGE_CURVE('',#135,#127,#68,.T.);
#167=EDGE_CURVE('',#134,#135,#69,.T.);
#168=EDGE_CURVE('',#136,#135,#110,.T.);
#169=EDGE_CURVE('',#126,#136,#70,.T.);
#170=EDGE_CURVE('',#137,#125,#71,.T.);
#171=EDGE_CURVE('',#136,#137,#111,.T.);
#172=EDGE_CURVE('',#138,#137,#112,.T.);
#173=EDGE_CURVE('',#124,#138,#72,.T.);
#174=EDGE_CURVE('',#139,#123,#73,.T.);
#175=EDGE_CURVE('',#138,#139,#74,.T.);
#176=EDGE_CURVE('',#140,#139,#113,.T.);
#177=EDGE_CURVE('',#122,#140,#75,.T.);
#178=EDGE_CURVE('',#141,#141,#114,.T.);
#179=EDGE_CURVE('',#141,#131,#76,.T.);
#180=EDGE_CURVE('',#140,#117,#115,.T.);
#181=ORIENTED_EDGE('',*,*,#142,.T.);
#182=ORIENTED_EDGE('',*,*,#143,.T.);
#183=ORIENTED_EDGE('',*,*,#144,.T.);
#184=ORIENTED_EDGE('',*,*,#145,.T.);
#185=ORIENTED_EDGE('',*,*,#145,.F.);
#186=ORIENTED_EDGE('',*,*,#146,.F.);
#187=ORIENTED_EDGE('',*,*,#147,.F.);
#188=ORIENTED_EDGE('',*,*,#148,.F.);
#189=ORIENTED_EDGE('',*,*,#144,.F.);
#190=ORIENTED_EDGE('',*,*,#149,.F.);
#191=ORIENTED_EDGE('',*,*,#150,.F.);
#192=ORIENTED_EDGE('',*,*,#151,.T.);
#193=ORIENTED_EDGE('',*,*,#152,.F.);
#194=ORIENTED_EDGE('',*,*,#153,.F.);
#195=ORIENTED_EDGE('',*,*,#154,.F.);
#196=ORIENTED_EDGE('',*,*,#155,.T.);
#197=ORIENTED_EDGE('',*,*,#156,.F.);
#198=ORIENTED_EDGE('',*,*,#157,.F.);
#199=ORIENTED_EDGE('',*,*,#158,.F.);
#200=ORIENTED_EDGE('',*,*,#146,.T.);
#201=ORIENTED_EDGE('',*,*,#159,.F.);
#202=ORIENTED_EDGE('',*,*,#160,.T.);
#203=ORIENTED_EDGE('',*,*,#147,.T.);
#204=ORIENTED_EDGE('',*,*,#158,.T.);
#205=ORIENTED_EDGE('',*,*,#161,.T.);
#206=ORIENTED_EDGE('',*,*,#161,.F.);
#207=ORIENTED_EDGE('',*,*,#157,.T.);
#208=ORIENTED_EDGE('',*,*,#162,.F.);
#209=ORIENTED_EDGE('',*,*,#163,.F.);
#210=ORIENTED_EDGE('',*,*,#164,.T.);
#211=ORIENTED_EDGE('',*,*,#162,.T.);
#212=ORIENTED_EDGE('',*,*,#156,.T.);
#213=ORIENTED_EDGE('',*,*,#165,.T.);
#214=ORIENTED_EDGE('',*,*,#165,.F.);
#215=ORIENTED_EDGE('',*,*,#155,.F.);
#216=ORIENTED_EDGE('',*,*,#166,.F.);
#217=ORIENTED_EDGE('',*,*,#167,.F.);
#218=ORIENTED_EDGE('',*,*,#168,.T.);
#219=ORIENTED_EDGE('',*,*,#166,.T.);
#220=ORIENTED_EDGE('',*,*,#154,.T.);
#221=ORIENTED_EDGE('',*,*,#169,.T.);
#222=ORIENTED_EDGE('',*,*,#169,.F.);
#223=ORIENTED_EDGE('',*,*,#153,.T.);
#224=ORIENTED_EDGE('',*,*,#170,.F.);
#225=ORIENTED_EDGE('',*,*,#171,.F.);
#226=ORIENTED_EDGE('',*,*,#172,.T.);
#227=ORIENTED_EDGE('',*,*,#170,.T.);
#228=ORIENTED_EDGE('',*,*,#152,.T.);
#229=ORIENTED_EDGE('',*,*,#173,.T.);
#230=ORIENTED_EDGE('',*,*,#173,.F.);
#231=ORIENTED_EDGE('',*,*,#151,.F.);
#232=ORIENTED_EDGE('',*,*,#174,.F.);
#233=ORIENTED_EDGE('',*,*,#175,.F.);
#234=ORIENTED_EDGE('',*,*,#176,.T.);
#235=ORIENTED_EDGE('',*,*,#174,.T.);
#236=ORIENTED_EDGE('',*,*,#150,.T.);
#237=ORIENTED_EDGE('',*,*,#177,.T.);
#238=ORIENTED_EDGE('',*,*,#178,.F.);
#239=ORIENTED_EDGE('',*,*,#179,.T.);
#240=ORIENTED_EDGE('',*,*,#159,.T.);
#241=ORIENTED_EDGE('',*,*,#179,.F.);
#242=ORIENTED_EDGE('',*,*,#143,.F.);
#243=ORIENTED_EDGE('',*,*,#180,.F.);
#244=ORIENTED_EDGE('',*,*,#177,.F.);
#245=ORIENTED_EDGE('',*,*,#149,.T.);
#246=ORIENTED_EDGE('',*,*,#142,.F.);
#247=ORIENTED_EDGE('',*,*,#148,.T.);
#248=ORIENTED_EDGE('',*,*,#160,.F.);
#249=ORIENTED_EDGE('',*,*,#163,.T.);
#250=ORIENTED_EDGE('',*,*,#164,.F.);
#251=ORIENTED_EDGE('',*,*,#167,.T.);
#252=ORIENTED_EDGE('',*,*,#168,.F.);
#253=ORIENTED_EDGE('',*,*,#171,.T.);
#254=ORIENTED_EDGE('',*,*,#172,.F.);
#255=ORIENTED_EDGE('',*,*,#175,.T.);
#256=ORIENTED_EDGE('',*,*,#176,.F.);
#257=ORIENTED_EDGE('',*,*,#180,.T.);
#258=ORIENTED_EDGE('',*,*,#178,.T.);
#259=CYLINDRICAL_SURFACE('',#299,25.4);
#260=CYLINDRICAL_SURFACE('',#313,25.4);
#261=CYLINDRICAL_SURFACE('',#315,1570.57258820651);
#262=CYLINDRICAL_SURFACE('',#317,25.4);
#263=CYLINDRICAL_SURFACE('',#320,25.4);
#264=CYLINDRICAL_SURFACE('',#322,1570.5725882065);
#265=CYLINDRICAL_SURFACE('',#324,25.4);
#266=CYLINDRICAL_SURFACE('',#327,25.4);
#267=CYLINDRICAL_SURFACE('',#329,81.184);
#268=CYLINDRICAL_SURFACE('',#331,1570.5725882065);
#269=ADVANCED_FACE('',(#26),#259,.T.);
#270=ADVANCED_FACE('',(#27),#21,.T.);
#271=ADVANCED_FACE('',(#28,#19),#22,.F.);
#272=ADVANCED_FACE('',(#29),#260,.T.);
#273=ADVANCED_FACE('',(#30),#261,.T.);
#274=ADVANCED_FACE('',(#31),#262,.T.);
#275=ADVANCED_FACE('',(#32),#23,.T.);
#276=ADVANCED_FACE('',(#33),#263,.T.);
#277=ADVANCED_FACE('',(#34),#264,.T.);
#278=ADVANCED_FACE('',(#35),#265,.T.);
#279=ADVANCED_FACE('',(#36),#24,.T.);
#280=ADVANCED_FACE('',(#37),#266,.T.);
#281=ADVANCED_FACE('',(#38),#267,.F.);
#282=ADVANCED_FACE('',(#39),#268,.T.);
#283=ADVANCED_FACE('',(#40,#20),#25,.T.);
#284=CLOSED_SHELL('',(#269,#270,#271,#272,#273,#274,#275,#276,#277,#278,
#279,#280,#281,#282,#283));
#285=DERIVED_UNIT_ELEMENT(#287,1.);
#286=DERIVED_UNIT_ELEMENT(#520,3.);
#287=(
MASS_UNIT()
NAMED_UNIT(*)
SI_UNIT(.KILO.,.GRAM.)
);
#288=DERIVED_UNIT((#285,#286));
#289=MEASURE_REPRESENTATION_ITEM('density measure',
POSITIVE_RATIO_MEASURE(510.),#288);
#290=PROPERTY_DEFINITION_REPRESENTATION(#295,#292);
#291=PROPERTY_DEFINITION_REPRESENTATION(#296,#293);
#292=REPRESENTATION('material name',(#294),#517);
#293=REPRESENTATION('density',(#289),#517);
#294=DESCRIPTIVE_REPRESENTATION_ITEM('Laminated Veneer Lumber',
'Laminated Veneer Lumber');
#295=PROPERTY_DEFINITION('material property','material name',#532);
#296=PROPERTY_DEFINITION('material property','density of part',#532);
#297=AXIS2_PLACEMENT_3D('placement',#430,#335,#336);
#298=AXIS2_PLACEMENT_3D('placement',#431,#337,#338);
#299=AXIS2_PLACEMENT_3D('',#432,#339,#340);
#300=AXIS2_PLACEMENT_3D('',#435,#341,#342);
#301=AXIS2_PLACEMENT_3D('',#439,#344,#345);
#302=AXIS2_PLACEMENT_3D('',#441,#347,#348);
#303=AXIS2_PLACEMENT_3D('',#447,#352,#353);
#304=AXIS2_PLACEMENT_3D('',#449,#354,#355);
#305=AXIS2_PLACEMENT_3D('',#451,#356,#357);
#306=AXIS2_PLACEMENT_3D('',#455,#359,#360);
#307=AXIS2_PLACEMENT_3D('',#457,#361,#362);
#308=AXIS2_PLACEMENT_3D('',#459,#363,#364);
#309=AXIS2_PLACEMENT_3D('',#463,#366,#367);
#310=AXIS2_PLACEMENT_3D('',#465,#368,#369);
#311=AXIS2_PLACEMENT_3D('',#466,#370,#371);
#312=AXIS2_PLACEMENT_3D('',#468,#372,#373);
#313=AXIS2_PLACEMENT_3D('',#469,#374,#375);
#314=AXIS2_PLACEMENT_3D('',#471,#376,#377);
#315=AXIS2_PLACEMENT_3D('',#473,#379,#380);
#316=AXIS2_PLACEMENT_3D('',#476,#382,#383);
#317=AXIS2_PLACEMENT_3D('',#477,#384,#385);
#318=AXIS2_PLACEMENT_3D('',#479,#386,#387);
#319=AXIS2_PLACEMENT_3D('',#481,#389,#390);
#320=AXIS2_PLACEMENT_3D('',#485,#393,#394);
#321=AXIS2_PLACEMENT_3D('',#487,#395,#396);
#322=AXIS2_PLACEMENT_3D('',#489,#398,#399);
#323=AXIS2_PLACEMENT_3D('',#492,#401,#402);
#324=AXIS2_PLACEMENT_3D('',#493,#403,#404);
#325=AXIS2_PLACEMENT_3D('',#495,#405,#406);
#326=AXIS2_PLACEMENT_3D('',#497,#408,#409);
#327=AXIS2_PLACEMENT_3D('',#501,#412,#413);
#328=AXIS2_PLACEMENT_3D('',#503,#414,#415);
#329=AXIS2_PLACEMENT_3D('',#505,#417,#418);
#330=AXIS2_PLACEMENT_3D('',#507,#419,#420);
#331=AXIS2_PLACEMENT_3D('',#509,#422,#423);
#332=AXIS2_PLACEMENT_3D('',#510,#424,#425);
#333=AXIS2_PLACEMENT_3D('',#511,#426,#427);
#334=AXIS2_PLACEMENT_3D('',#512,#428,#429);
#335=DIRECTION('axis',(0.,0.,1.));
#336=DIRECTION('refdir',(1.,0.,0.));
#337=DIRECTION('axis',(0.,0.,1.));
#338=DIRECTION('refdir',(1.,0.,0.));
#339=DIRECTION('center_axis',(0.,1.,0.));
#340=DIRECTION('ref_axis',(0.55743737799862,0.,0.830218988948111));
#341=DIRECTION('center_axis',(0.,-1.,0.));
#342=DIRECTION('ref_axis',(0.55743737799862,0.,0.830218988948111));
#343=DIRECTION('',(0.,-1.,0.));
#344=DIRECTION('center_axis',(0.,1.,0.));
#345=DIRECTION('ref_axis',(0.55743737799862,0.,0.830218988948111));
#346=DIRECTION('',(0.,1.,0.));
#347=DIRECTION('center_axis',(0.866025403784438,0.,0.500000000000001));
#348=DIRECTION('ref_axis',(0.500000000000001,0.,-0.866025403784438));
#349=DIRECTION('',(-0.500000000000001,0.,0.866025403784438));
#350=DIRECTION('',(0.,-1.,0.));
#351=DIRECTION('',(0.500000000000001,0.,-0.866025403784438));
#352=DIRECTION('center_axis',(0.,1.,0.));
#353=DIRECTION('ref_axis',(1.,0.,0.));
#354=DIRECTION('center_axis',(0.,1.,0.));
#355=DIRECTION('ref_axis',(-0.142858632033414,0.,0.989743103665563));
#356=DIRECTION('center_axis',(0.,1.,0.));
#357=DIRECTION('ref_axis',(-0.557437371998934,0.,0.830218992976505));
#358=DIRECTION('',(-0.5,0.,-0.866025403784439));
#359=DIRECTION('center_axis',(0.,1.,0.));
#360=DIRECTION('ref_axis',(-0.997709424132606,0.,0.0676454358917338));
#361=DIRECTION('center_axis',(0.,1.,0.));
#362=DIRECTION('ref_axis',(-0.785713354978126,0.,-0.618590756323611));
#363=DIRECTION('center_axis',(0.,1.,0.));
#364=DIRECTION('ref_axis',(-0.440272052622524,0.,-0.897864421658164));
#365=DIRECTION('',(1.,0.,0.));
#366=DIRECTION('center_axis',(0.,1.,0.));
#367=DIRECTION('ref_axis',(0.440272046133988,0.,-0.897864424839848));
#368=DIRECTION('center_axis',(0.,1.,0.));
#369=DIRECTION('ref_axis',(0.92857198701154,0.,-0.371152347341951));
#370=DIRECTION('center_axis',(0.,1.,0.));
#371=DIRECTION('ref_axis',(0.997709424621455,0.,0.067645428681657));
#372=DIRECTION('center_axis',(0.,-1.,0.));
#373=DIRECTION('ref_axis',(1.,0.,0.));
#374=DIRECTION('center_axis',(0.,1.,0.));
#375=DIRECTION('ref_axis',(0.997709424621455,0.,0.067645428681657));
#376=DIRECTION('center_axis',(0.,-1.,0.));
#377=DIRECTION('ref_axis',(0.997709424621455,0.,0.067645428681657));
#378=DIRECTION('',(0.,1.,0.));
#379=DIRECTION('center_axis',(0.,1.,0.));
#380=DIRECTION('ref_axis',(0.92857198701154,0.,-0.371152347341951));
#381=DIRECTION('',(0.,-1.,0.));
#382=DIRECTION('center_axis',(0.,1.,0.));
#383=DIRECTION('ref_axis',(0.92857198701154,0.,-0.371152347341951));
#384=DIRECTION('center_axis',(0.,1.,0.));
#385=DIRECTION('ref_axis',(0.440272046133988,0.,-0.897864424839848));
#386=DIRECTION('center_axis',(0.,-1.,0.));
#387=DIRECTION('ref_axis',(0.440272046133988,0.,-0.897864424839848));
#388=DIRECTION('',(0.,1.,0.));
#389=DIRECTION('center_axis',(0.,0.,-1.));
#390=DIRECTION('ref_axis',(-1.,0.,0.));
#391=DIRECTION('',(0.,-1.,0.));
#392=DIRECTION('',(-1.,0.,0.));
#393=DIRECTION('center_axis',(0.,1.,0.));
#394=DIRECTION('ref_axis',(-0.440272052622524,0.,-0.897864421658164));
#395=DIRECTION('center_axis',(0.,-1.,0.));
#396=DIRECTION('ref_axis',(-0.440272052622524,0.,-0.897864421658164));
#397=DIRECTION('',(0.,1.,0.));
#398=DIRECTION('center_axis',(0.,1.,0.));
#399=DIRECTION('ref_axis',(-0.785713354978126,0.,-0.618590756323611));
#400=DIRECTION('',(0.,-1.,0.));
#401=DIRECTION('center_axis',(0.,1.,0.));
#402=DIRECTION('ref_axis',(-0.785713354978126,0.,-0.618590756323611));
#403=DIRECTION('center_axis',(0.,1.,0.));
#404=DIRECTION('ref_axis',(-0.997709424132606,0.,0.0676454358917338));
#405=DIRECTION('center_axis',(0.,-1.,0.));
#406=DIRECTION('ref_axis',(-0.997709424132606,0.,0.0676454358917338));
#407=DIRECTION('',(0.,1.,0.));
#408=DIRECTION('center_axis',(-0.866025403784439,0.,0.5));
#409=DIRECTION('ref_axis',(0.5,0.,0.866025403784439));
#410=DIRECTION('',(0.,-1.,0.));
#411=DIRECTION('',(0.5,0.,0.866025403784439));
#412=DIRECTION('center_axis',(0.,1.,0.));
#413=DIRECTION('ref_axis',(-0.557437371998934,0.,0.830218992976505));
#414=DIRECTION('center_axis',(0.,-1.,0.));
#415=DIRECTION('ref_axis',(-0.557437371998934,0.,0.830218992976505));
#416=DIRECTION('',(0.,1.,0.));
#417=DIRECTION('center_axis',(0.,1.,0.));
#418=DIRECTION('ref_axis',(1.,0.,0.));
#419=DIRECTION('center_axis',(0.,-1.,0.));
#420=DIRECTION('ref_axis',(1.,0.,0.));
#421=DIRECTION('',(0.,-1.,0.));
#422=DIRECTION('center_axis',(0.,1.,0.));
#423=DIRECTION('ref_axis',(-0.142858632033414,0.,0.989743103665563));
#424=DIRECTION('center_axis',(0.,1.,0.));
#425=DIRECTION('ref_axis',(-0.142858632033414,0.,0.989743103665563));
#426=DIRECTION('center_axis',(0.,1.,0.));
#427=DIRECTION('ref_axis',(1.,0.,0.));
#428=DIRECTION('',(0.,0.,1.));
#429=DIRECTION('',(1.,0.,0.));
#430=CARTESIAN_POINT('',(0.,0.,0.));
#431=CARTESIAN_POINT('',(0.,0.,0.));
#432=CARTESIAN_POINT('Origin',(208.568896597089,0.,124.734743244934));
#433=CARTESIAN_POINT('',(230.565941853214,19.,137.434743244934));
#434=CARTESIAN_POINT('',(211.997413432637,19.,149.902287271087));
#435=CARTESIAN_POINT('Origin',(208.568896597089,19.,124.734743244934));
#436=CARTESIAN_POINT('',(211.997413432637,0.,149.902287271087));
#437=CARTESIAN_POINT('',(211.997413432637,0.,149.902287271087));
#438=CARTESIAN_POINT('',(230.565941853214,0.,137.434743244934));
#439=CARTESIAN_POINT('Origin',(208.568896597089,0.,124.734743244934));
#440=CARTESIAN_POINT('',(230.565941853214,0.,137.434743244934));
#441=CARTESIAN_POINT('Origin',(224.369863507822,0.,148.16666574683));
#442=CARTESIAN_POINT('',(234.304951679734,0.,130.958588255401));
#443=CARTESIAN_POINT('',(240.501030138177,0.,120.226665557695));
#444=CARTESIAN_POINT('',(234.304951679734,19.,130.958588255401));
#445=CARTESIAN_POINT('',(234.304951679734,0.,130.958588255401));
#446=CARTESIAN_POINT('',(240.501030138177,19.,120.226665557695));
#447=CARTESIAN_POINT('Origin',(9.26736909434567E-7,0.,-52.0587326673763));
#448=CARTESIAN_POINT('',(-211.997411328461,0.,149.902290335141));
#449=CARTESIAN_POINT('Origin',(-1.01939880892132E-5,0.,-1406.29671902642));
#450=CARTESIAN_POINT('',(-230.565940112791,0.,137.434746259435));
#451=CARTESIAN_POINT('Origin',(-208.568894856666,0.,124.734746259435));
#452=CARTESIAN_POINT('',(-234.304949939311,0.,130.958591269902));
#453=CARTESIAN_POINT('',(-224.369861654348,0.,148.166668957141));
#454=CARTESIAN_POINT('',(-235.817895578473,0.,108.644001933713));
#455=CARTESIAN_POINT('Origin',(-212.307904683187,0.,118.258591269902));
#456=CARTESIAN_POINT('',(-23.8204858514725,0.,-258.546288914557));
#457=CARTESIAN_POINT('Origin',(1217.88868903258,0.,703.148350684957));
#458=CARTESIAN_POINT('',(-3.73901156694359,0.,-268.393334514836));
#459=CARTESIAN_POINT('Origin',(-3.73901156694359,0.,-242.993334514836));
#460=CARTESIAN_POINT('',(3.73900808609818,0.,-268.393334514836));
#461=CARTESIAN_POINT('',(-16.1311684838296,0.,-268.393334514836));
#462=CARTESIAN_POINT('',(23.8204821458359,0.,-258.546289204799));
#463=CARTESIAN_POINT('Origin',(3.73900808609818,0.,-242.993334514836));
#464=CARTESIAN_POINT('',(235.817897179933,0.,108.643998579416));
#465=CARTESIAN_POINT('Origin',(-1217.88867883859,0.,703.148368341463));
#466=CARTESIAN_POINT('Origin',(212.30790642361,0.,118.258588255401));
#467=CARTESIAN_POINT('',(-81.184,0.,9.94217257419787E-15));
#468=CARTESIAN_POINT('Origin',(0.,0.,0.));
#469=CARTESIAN_POINT('Origin',(212.30790642361,0.,118.258588255401));
#470=CARTESIAN_POINT('',(235.817897179933,19.,108.643998579416));
#471=CARTESIAN_POINT('Origin',(212.30790642361,19.,118.258588255401));
#472=CARTESIAN_POINT('',(235.817897179934,0.,108.643998579416));
#473=CARTESIAN_POINT('Origin',(-1217.88867883859,0.,703.148368341463));
#474=CARTESIAN_POINT('',(23.8204821458359,19.,-258.546289204799));
#475=CARTESIAN_POINT('',(23.8204821458361,0.,-258.5462892048));
#476=CARTESIAN_POINT('Origin',(-1217.88867883859,19.,703.148368341463));
#477=CARTESIAN_POINT('Origin',(3.73900808609818,0.,-242.993334514836));
#478=CARTESIAN_POINT('',(3.73900808609818,19.,-268.393334514836));
#479=CARTESIAN_POINT('Origin',(3.73900808609818,19.,-242.993334514836));
#480=CARTESIAN_POINT('',(3.73900808609818,0.,-268.393334514836));
#481=CARTESIAN_POINT('Origin',(16.1311647768818,0.,-268.393334514836));
#482=CARTESIAN_POINT('',(-3.73901156694359,19.,-268.393334514836));
#483=CARTESIAN_POINT('',(-3.73901156694359,0.,-268.393334514836));
#484=CARTESIAN_POINT('',(-16.1311684838296,19.,-268.393334514836));
#485=CARTESIAN_POINT('Origin',(-3.73901156694359,0.,-242.993334514836));
#486=CARTESIAN_POINT('',(-23.8204858514725,19.,-258.546288914557));
#487=CARTESIAN_POINT('Origin',(-3.73901156694359,19.,-242.993334514836));
#488=CARTESIAN_POINT('',(-23.8204858514725,0.,-258.546288914557));
#489=CARTESIAN_POINT('Origin',(1217.88868903258,0.,703.148350684957));
#490=CARTESIAN_POINT('',(-235.817895578473,19.,108.644001933713));
#491=CARTESIAN_POINT('',(-235.817895578473,0.,108.644001933713));
#492=CARTESIAN_POINT('Origin',(1217.88868903258,19.,703.148350684957));
#493=CARTESIAN_POINT('Origin',(-212.307904683187,0.,118.258591269902));
#494=CARTESIAN_POINT('',(-234.304949939311,19.,130.958591269902));
#495=CARTESIAN_POINT('Origin',(-212.307904683187,19.,118.258591269902));
#496=CARTESIAN_POINT('',(-234.304949939311,0.,130.958591269902));
#497=CARTESIAN_POINT('Origin',(-240.501028284703,0.,120.226668768006));
#498=CARTESIAN_POINT('',(-230.565940112791,19.,137.434746259435));
#499=CARTESIAN_POINT('',(-230.565940112791,0.,137.434746259435));
#500=CARTESIAN_POINT('',(-224.369861654348,19.,148.166668957141));
#501=CARTESIAN_POINT('Origin',(-208.568894856666,0.,124.734746259435));
#502=CARTESIAN_POINT('',(-211.997411328461,19.,149.902290335141));
#503=CARTESIAN_POINT('Origin',(-208.568894856666,19.,124.734746259435));
#504=CARTESIAN_POINT('',(-211.997411328461,0.,149.902290335141));
#505=CARTESIAN_POINT('Origin',(0.,0.,0.));
#506=CARTESIAN_POINT('',(-81.184,19.,9.94217257419787E-15));
#507=CARTESIAN_POINT('Origin',(0.,19.,0.));
#508=CARTESIAN_POINT('',(-81.184,0.,9.94217257419787E-15));
#509=CARTESIAN_POINT('Origin',(-1.01939880892132E-5,0.,-1406.29671902642));
#510=CARTESIAN_POINT('Origin',(-1.01939880892132E-5,19.,-1406.29671902642));
#511=CARTESIAN_POINT('Origin',(9.26736909434567E-7,19.,-52.0587326673763));
#512=CARTESIAN_POINT('',(0.,0.,0.));
#513=UNCERTAINTY_MEASURE_WITH_UNIT(LENGTH_MEASURE(0.01),#519,
'DISTANCE_ACCURACY_VALUE',
'Maximum model space distance between geometric entities at asserted c
onnectivities');
#514=UNCERTAINTY_MEASURE_WITH_UNIT(LENGTH_MEASURE(0.01),#519,
'DISTANCE_ACCURACY_VALUE',
'Maximum model space distance between geometric entities at asserted c
onnectivities');
#515=UNCERTAINTY_MEASURE_WITH_UNIT(LENGTH_MEASURE(0.01),#519,
'DISTANCE_ACCURACY_VALUE',
'Maximum model space distance between geometric entities at asserted c
onnectivities');
#516=(
GEOMETRIC_REPRESENTATION_CONTEXT(3)
GLOBAL_UNCERTAINTY_ASSIGNED_CONTEXT((#513))
GLOBAL_UNIT_ASSIGNED_CONTEXT((#519,#521,#522))
REPRESENTATION_CONTEXT('','3D')
);
#517=(
GEOMETRIC_REPRESENTATION_CONTEXT(3)
GLOBAL_UNCERTAINTY_ASSIGNED_CONTEXT((#514))
GLOBAL_UNIT_ASSIGNED_CONTEXT((#519,#521,#522))
REPRESENTATION_CONTEXT('','3D')
);
#518=(
GEOMETRIC_REPRESENTATION_CONTEXT(3)
GLOBAL_UNCERTAINTY_ASSIGNED_CONTEXT((#515))
GLOBAL_UNIT_ASSIGNED_CONTEXT((#519,#521,#522))
REPRESENTATION_CONTEXT('','3D')
);
#519=(
LENGTH_UNIT()
NAMED_UNIT(*)
SI_UNIT(.MILLI.,.METRE.)
);
#520=(
LENGTH_UNIT()
NAMED_UNIT(*)
SI_UNIT($,.METRE.)
);
#521=(
NAMED_UNIT(*)
PLANE_ANGLE_UNIT()
SI_UNIT($,.RADIAN.)
);
#522=(
NAMED_UNIT(*)
SI_UNIT($,.STERADIAN.)
SOLID_ANGLE_UNIT()
);
#523=SHAPE_DEFINITION_REPRESENTATION(#525,#528);
#524=SHAPE_DEFINITION_REPRESENTATION(#526,#529);
#525=PRODUCT_DEFINITION_SHAPE('',$,#531);
#526=PRODUCT_DEFINITION_SHAPE('',$,#532);
#527=PRODUCT_DEFINITION_SHAPE($,$,#16);
#528=SHAPE_REPRESENTATION('',(#297,#334),#516);
#529=SHAPE_REPRESENTATION('',(#298),#517);
#530=PRODUCT_DEFINITION_CONTEXT('part definition',#538,'design');
#531=PRODUCT_DEFINITION('BaseMkII','BaseMkII v11',#533,#530);
#532=PRODUCT_DEFINITION('Top base','Top base',#534,#530);
#533=PRODUCT_DEFINITION_FORMATION('',$,#540);
#534=PRODUCT_DEFINITION_FORMATION('',$,#541);
#535=PRODUCT_RELATED_PRODUCT_CATEGORY('BaseMkII v11','BaseMkII v11',(#540));
#536=PRODUCT_RELATED_PRODUCT_CATEGORY('Top base','Top base',(#541));
#537=APPLICATION_PROTOCOL_DEFINITION('international standard',
'automotive_design',2009,#538);
#538=APPLICATION_CONTEXT(
'Core Data for Automotive Mechanical Design Process');
#539=PRODUCT_CONTEXT('part definition',#538,'mechanical');
#540=PRODUCT('BaseMkII','BaseMkII v11',$,(#539));
#541=PRODUCT('Top base','Top base',$,(#539));
#542=PRESENTATION_STYLE_ASSIGNMENT((#545));
#543=PRESENTATION_STYLE_ASSIGNMENT((#546));
#544=PRESENTATION_STYLE_ASSIGNMENT((#547));
#545=SURFACE_STYLE_USAGE(.BOTH.,#548);
#546=SURFACE_STYLE_USAGE(.BOTH.,#549);
#547=SURFACE_STYLE_USAGE(.BOTH.,#550);
#548=SURFACE_SIDE_STYLE('',(#551));
#549=SURFACE_SIDE_STYLE('',(#552));
#550=SURFACE_SIDE_STYLE('',(#553));
#551=SURFACE_STYLE_FILL_AREA(#554);
#552=SURFACE_STYLE_FILL_AREA(#555);
#553=SURFACE_STYLE_FILL_AREA(#556);
#554=FILL_AREA_STYLE('Surface - Matte',(#557));
#555=FILL_AREA_STYLE('Plastic - Glossy (Yellow)',(#558));
#556=FILL_AREA_STYLE('Oak - Semigloss',(#559));
#557=FILL_AREA_STYLE_COLOUR('Surface - Matte',#560);
#558=FILL_AREA_STYLE_COLOUR('Plastic - Glossy (Yellow)',#561);
#559=FILL_AREA_STYLE_COLOUR('Oak - Semigloss',#562);
#560=COLOUR_RGB('Surface - Matte',0.701960784313725,0.701960784313725,0.701960784313725);
#561=COLOUR_RGB('Plastic - Glossy (Yellow)',0.909803921568627,0.67843137254902,
0.137254901960784);
#562=COLOUR_RGB('Oak - Semigloss',0.,0.,0.);
ENDSEC;
END-ISO-10303-21;
