ISO-10303-21;
HEADER;
/* Generated by software containing ST-Developer
 * from STEP Tools, Inc. (www.steptools.com) 
 */

FILE_DESCRIPTION(
/* description */ (''),
/* implementation_level */ '2;1');

FILE_NAME(
/* name */ 
'/Users/megumiiwata/Desktop/sphere_engraving_support v3.step',
/* time_stamp */ '2018-05-23T14:04:00+03:00',
/* author */ ('Megumi.Iwata'),
/* organization */ (''),
/* preprocessor_version */ 'ST-DEVELOPER v17',
/* originating_system */ 'Autodesk Translation Framework v7.1.0.215',
/* authorisation */ '');

FILE_SCHEMA (('AUTOMOTIVE_DESIGN { 1 0 10303 214 3 1 1 }'));
ENDSEC;

DATA;
#10=MECHANICAL_DESIGN_GEOMETRIC_PRESENTATION_REPRESENTATION('',(#13,#14,
#15,#16),#436);
#11=SHAPE_REPRESENTATION_RELATIONSHIP('SRR','None',#443,#12);
#12=ADVANCED_BREP_SHAPE_REPRESENTATION('',(#17,#18,#19,#20),#435);
#13=STYLED_ITEM('',(#452),#17);
#14=STYLED_ITEM('',(#452),#18);
#15=STYLED_ITEM('',(#452),#19);
#16=STYLED_ITEM('',(#452),#20);
#17=MANIFOLD_SOLID_BREP('Body1',#232);
#18=MANIFOLD_SOLID_BREP('Body2',#233);
#19=MANIFOLD_SOLID_BREP('Body5',#234);
#20=MANIFOLD_SOLID_BREP('Body6',#235);
#21=FACE_BOUND('',#52,.T.);
#22=FACE_BOUND('',#55,.T.);
#23=FACE_BOUND('',#60,.T.);
#24=FACE_BOUND('',#62,.T.);
#25=FACE_BOUND('',#66,.T.);
#26=FACE_BOUND('',#68,.T.);
#27=PLANE('',#256);
#28=PLANE('',#261);
#29=PLANE('',#274);
#30=PLANE('',#275);
#31=PLANE('',#284);
#32=PLANE('',#285);
#33=SPHERICAL_SURFACE('',#252,30.);
#34=SPHERICAL_SURFACE('',#264,30.);
#35=FACE_OUTER_BOUND('',#49,.T.);
#36=FACE_OUTER_BOUND('',#50,.T.);
#37=FACE_OUTER_BOUND('',#51,.T.);
#38=FACE_OUTER_BOUND('',#53,.T.);
#39=FACE_OUTER_BOUND('',#54,.T.);
#40=FACE_OUTER_BOUND('',#56,.T.);
#41=FACE_OUTER_BOUND('',#57,.T.);
#42=FACE_OUTER_BOUND('',#58,.T.);
#43=FACE_OUTER_BOUND('',#59,.T.);
#44=FACE_OUTER_BOUND('',#61,.T.);
#45=FACE_OUTER_BOUND('',#63,.T.);
#46=FACE_OUTER_BOUND('',#64,.T.);
#47=FACE_OUTER_BOUND('',#65,.T.);
#48=FACE_OUTER_BOUND('',#67,.T.);
#49=EDGE_LOOP('',(#154,#155,#156,#157));
#50=EDGE_LOOP('',(#158,#159,#160,#161,#162));
#51=EDGE_LOOP('',(#163,#164));
#52=EDGE_LOOP('',(#165));
#53=EDGE_LOOP('',(#166,#167,#168,#169,#170));
#54=EDGE_LOOP('',(#171,#172));
#55=EDGE_LOOP('',(#173));
#56=EDGE_LOOP('',(#174,#175,#176,#177,#178,#179));
#57=EDGE_LOOP('',(#180,#181,#182,#183));
#58=EDGE_LOOP('',(#184,#185,#186,#187,#188,#189));
#59=EDGE_LOOP('',(#190,#191));
#60=EDGE_LOOP('',(#192));
#61=EDGE_LOOP('',(#193,#194));
#62=EDGE_LOOP('',(#195));
#63=EDGE_LOOP('',(#196,#197,#198,#199));
#64=EDGE_LOOP('',(#200,#201,#202,#203,#204,#205));
#65=EDGE_LOOP('',(#206,#207));
#66=EDGE_LOOP('',(#208));
#67=EDGE_LOOP('',(#209,#210));
#68=EDGE_LOOP('',(#211));
#69=LINE('',#373,#75);
#70=LINE('',#386,#76);
#71=LINE('',#401,#77);
#72=LINE('',#409,#78);
#73=LINE('',#419,#79);
#74=LINE('',#427,#80);
#75=VECTOR('',#292,2.25);
#76=VECTOR('',#309,2.25);
#77=VECTOR('',#328,2.25);
#78=VECTOR('',#337,30.);
#79=VECTOR('',#350,2.25);
#80=VECTOR('',#359,30.);
#81=CIRCLE('',#250,2.25);
#82=CIRCLE('',#251,2.25);
#83=CIRCLE('',#253,30.);
#84=CIRCLE('',#254,30.);
#85=CIRCLE('',#255,30.);
#86=CIRCLE('',#258,2.25);
#87=CIRCLE('',#259,2.25);
#88=CIRCLE('',#260,2.25);
#89=CIRCLE('',#262,30.);
#90=CIRCLE('',#263,30.);
#91=CIRCLE('',#265,30.);
#92=CIRCLE('',#267,2.25);
#93=CIRCLE('',#268,2.25);
#94=CIRCLE('',#270,30.);
#95=CIRCLE('',#271,30.);
#96=CIRCLE('',#272,30.);
#97=CIRCLE('',#273,30.);
#98=CIRCLE('',#277,2.25);
#99=CIRCLE('',#278,2.25);
#100=CIRCLE('',#280,30.);
#101=CIRCLE('',#281,30.);
#102=CIRCLE('',#282,30.);
#103=CIRCLE('',#283,30.);
#104=VERTEX_POINT('',#370);
#105=VERTEX_POINT('',#372);
#106=VERTEX_POINT('',#376);
#107=VERTEX_POINT('',#377);
#108=VERTEX_POINT('',#383);
#109=VERTEX_POINT('',#385);
#110=VERTEX_POINT('',#387);
#111=VERTEX_POINT('',#391);
#112=VERTEX_POINT('',#392);
#113=VERTEX_POINT('',#398);
#114=VERTEX_POINT('',#400);
#115=VERTEX_POINT('',#404);
#116=VERTEX_POINT('',#405);
#117=VERTEX_POINT('',#408);
#118=VERTEX_POINT('',#410);
#119=VERTEX_POINT('',#416);
#120=VERTEX_POINT('',#418);
#121=VERTEX_POINT('',#422);
#122=VERTEX_POINT('',#423);
#123=VERTEX_POINT('',#426);
#124=VERTEX_POINT('',#428);
#125=EDGE_CURVE('',#104,#104,#81,.T.);
#126=EDGE_CURVE('',#104,#105,#69,.T.);
#127=EDGE_CURVE('',#105,#105,#82,.T.);
#128=EDGE_CURVE('',#106,#107,#83,.T.);
#129=EDGE_CURVE('',#107,#106,#84,.T.);
#130=EDGE_CURVE('',#107,#105,#85,.T.);
#131=EDGE_CURVE('',#108,#108,#86,.T.);
#132=EDGE_CURVE('',#108,#109,#70,.T.);
#133=EDGE_CURVE('',#110,#109,#87,.T.);
#134=EDGE_CURVE('',#109,#110,#88,.T.);
#135=EDGE_CURVE('',#111,#112,#89,.T.);
#136=EDGE_CURVE('',#112,#111,#90,.T.);
#137=EDGE_CURVE('',#110,#112,#91,.T.);
#138=EDGE_CURVE('',#113,#113,#92,.T.);
#139=EDGE_CURVE('',#113,#114,#71,.T.);
#140=EDGE_CURVE('',#114,#114,#93,.T.);
#141=EDGE_CURVE('',#115,#116,#94,.T.);
#142=EDGE_CURVE('',#116,#115,#95,.T.);
#143=EDGE_CURVE('',#116,#117,#72,.T.);
#144=EDGE_CURVE('',#118,#117,#96,.T.);
#145=EDGE_CURVE('',#117,#118,#97,.T.);
#146=EDGE_CURVE('',#119,#119,#98,.T.);
#147=EDGE_CURVE('',#119,#120,#73,.T.);
#148=EDGE_CURVE('',#120,#120,#99,.T.);
#149=EDGE_CURVE('',#121,#122,#100,.T.);
#150=EDGE_CURVE('',#122,#121,#101,.T.);
#151=EDGE_CURVE('',#122,#123,#74,.T.);
#152=EDGE_CURVE('',#124,#123,#102,.T.);
#153=EDGE_CURVE('',#123,#124,#103,.T.);
#154=ORIENTED_EDGE('',*,*,#125,.F.);
#155=ORIENTED_EDGE('',*,*,#126,.T.);
#156=ORIENTED_EDGE('',*,*,#127,.F.);
#157=ORIENTED_EDGE('',*,*,#126,.F.);
#158=ORIENTED_EDGE('',*,*,#128,.F.);
#159=ORIENTED_EDGE('',*,*,#129,.F.);
#160=ORIENTED_EDGE('',*,*,#130,.T.);
#161=ORIENTED_EDGE('',*,*,#127,.T.);
#162=ORIENTED_EDGE('',*,*,#130,.F.);
#163=ORIENTED_EDGE('',*,*,#128,.T.);
#164=ORIENTED_EDGE('',*,*,#129,.T.);
#165=ORIENTED_EDGE('',*,*,#125,.T.);
#166=ORIENTED_EDGE('',*,*,#131,.F.);
#167=ORIENTED_EDGE('',*,*,#132,.T.);
#168=ORIENTED_EDGE('',*,*,#133,.F.);
#169=ORIENTED_EDGE('',*,*,#134,.F.);
#170=ORIENTED_EDGE('',*,*,#132,.F.);
#171=ORIENTED_EDGE('',*,*,#135,.F.);
#172=ORIENTED_EDGE('',*,*,#136,.F.);
#173=ORIENTED_EDGE('',*,*,#131,.T.);
#174=ORIENTED_EDGE('',*,*,#134,.T.);
#175=ORIENTED_EDGE('',*,*,#137,.T.);
#176=ORIENTED_EDGE('',*,*,#136,.T.);
#177=ORIENTED_EDGE('',*,*,#135,.T.);
#178=ORIENTED_EDGE('',*,*,#137,.F.);
#179=ORIENTED_EDGE('',*,*,#133,.T.);
#180=ORIENTED_EDGE('',*,*,#138,.F.);
#181=ORIENTED_EDGE('',*,*,#139,.T.);
#182=ORIENTED_EDGE('',*,*,#140,.F.);
#183=ORIENTED_EDGE('',*,*,#139,.F.);
#184=ORIENTED_EDGE('',*,*,#141,.F.);
#185=ORIENTED_EDGE('',*,*,#142,.F.);
#186=ORIENTED_EDGE('',*,*,#143,.T.);
#187=ORIENTED_EDGE('',*,*,#144,.F.);
#188=ORIENTED_EDGE('',*,*,#145,.F.);
#189=ORIENTED_EDGE('',*,*,#143,.F.);
#190=ORIENTED_EDGE('',*,*,#144,.T.);
#191=ORIENTED_EDGE('',*,*,#145,.T.);
#192=ORIENTED_EDGE('',*,*,#138,.T.);
#193=ORIENTED_EDGE('',*,*,#141,.T.);
#194=ORIENTED_EDGE('',*,*,#142,.T.);
#195=ORIENTED_EDGE('',*,*,#140,.T.);
#196=ORIENTED_EDGE('',*,*,#146,.F.);
#197=ORIENTED_EDGE('',*,*,#147,.T.);
#198=ORIENTED_EDGE('',*,*,#148,.F.);
#199=ORIENTED_EDGE('',*,*,#147,.F.);
#200=ORIENTED_EDGE('',*,*,#149,.F.);
#201=ORIENTED_EDGE('',*,*,#150,.F.);
#202=ORIENTED_EDGE('',*,*,#151,.T.);
#203=ORIENTED_EDGE('',*,*,#152,.F.);
#204=ORIENTED_EDGE('',*,*,#153,.F.);
#205=ORIENTED_EDGE('',*,*,#151,.F.);
#206=ORIENTED_EDGE('',*,*,#152,.T.);
#207=ORIENTED_EDGE('',*,*,#153,.T.);
#208=ORIENTED_EDGE('',*,*,#146,.T.);
#209=ORIENTED_EDGE('',*,*,#149,.T.);
#210=ORIENTED_EDGE('',*,*,#150,.T.);
#211=ORIENTED_EDGE('',*,*,#148,.T.);
#212=CYLINDRICAL_SURFACE('',#249,2.25);
#213=CYLINDRICAL_SURFACE('',#257,2.25);
#214=CYLINDRICAL_SURFACE('',#266,2.25);
#215=CYLINDRICAL_SURFACE('',#269,30.);
#216=CYLINDRICAL_SURFACE('',#276,2.25);
#217=CYLINDRICAL_SURFACE('',#279,30.);
#218=ADVANCED_FACE('',(#35),#212,.F.);
#219=ADVANCED_FACE('',(#36),#33,.T.);
#220=ADVANCED_FACE('',(#37,#21),#27,.T.);
#221=ADVANCED_FACE('',(#38),#213,.F.);
#222=ADVANCED_FACE('',(#39,#22),#28,.F.);
#223=ADVANCED_FACE('',(#40),#34,.T.);
#224=ADVANCED_FACE('',(#41),#214,.F.);
#225=ADVANCED_FACE('',(#42),#215,.T.);
#226=ADVANCED_FACE('',(#43,#23),#29,.T.);
#227=ADVANCED_FACE('',(#44,#24),#30,.T.);
#228=ADVANCED_FACE('',(#45),#216,.F.);
#229=ADVANCED_FACE('',(#46),#217,.T.);
#230=ADVANCED_FACE('',(#47,#25),#31,.T.);
#231=ADVANCED_FACE('',(#48,#26),#32,.T.);
#232=CLOSED_SHELL('',(#218,#219,#220));
#233=CLOSED_SHELL('',(#221,#222,#223));
#234=CLOSED_SHELL('',(#224,#225,#226,#227));
#235=CLOSED_SHELL('',(#228,#229,#230,#231));
#236=DERIVED_UNIT_ELEMENT(#238,1.);
#237=DERIVED_UNIT_ELEMENT(#440,3.);
#238=(
MASS_UNIT()
NAMED_UNIT(*)
SI_UNIT(.KILO.,.GRAM.)
);
#239=DERIVED_UNIT((#236,#237));
#240=MEASURE_REPRESENTATION_ITEM('density measure',
POSITIVE_RATIO_MEASURE(7850.),#239);
#241=PROPERTY_DEFINITION_REPRESENTATION(#246,#243);
#242=PROPERTY_DEFINITION_REPRESENTATION(#247,#244);
#243=REPRESENTATION('material name',(#245),#435);
#244=REPRESENTATION('density',(#240),#435);
#245=DESCRIPTIVE_REPRESENTATION_ITEM('Steel','Steel');
#246=PROPERTY_DEFINITION('material property','material name',#445);
#247=PROPERTY_DEFINITION('material property','density of part',#445);
#248=AXIS2_PLACEMENT_3D('placement',#368,#286,#287);
#249=AXIS2_PLACEMENT_3D('',#369,#288,#289);
#250=AXIS2_PLACEMENT_3D('',#371,#290,#291);
#251=AXIS2_PLACEMENT_3D('',#374,#293,#294);
#252=AXIS2_PLACEMENT_3D('',#375,#295,#296);
#253=AXIS2_PLACEMENT_3D('',#378,#297,#298);
#254=AXIS2_PLACEMENT_3D('',#379,#299,#300);
#255=AXIS2_PLACEMENT_3D('',#380,#301,#302);
#256=AXIS2_PLACEMENT_3D('',#381,#303,#304);
#257=AXIS2_PLACEMENT_3D('',#382,#305,#306);
#258=AXIS2_PLACEMENT_3D('',#384,#307,#308);
#259=AXIS2_PLACEMENT_3D('',#388,#310,#311);
#260=AXIS2_PLACEMENT_3D('',#389,#312,#313);
#261=AXIS2_PLACEMENT_3D('',#390,#314,#315);
#262=AXIS2_PLACEMENT_3D('',#393,#316,#317);
#263=AXIS2_PLACEMENT_3D('',#394,#318,#319);
#264=AXIS2_PLACEMENT_3D('',#395,#320,#321);
#265=AXIS2_PLACEMENT_3D('',#396,#322,#323);
#266=AXIS2_PLACEMENT_3D('',#397,#324,#325);
#267=AXIS2_PLACEMENT_3D('',#399,#326,#327);
#268=AXIS2_PLACEMENT_3D('',#402,#329,#330);
#269=AXIS2_PLACEMENT_3D('',#403,#331,#332);
#270=AXIS2_PLACEMENT_3D('',#406,#333,#334);
#271=AXIS2_PLACEMENT_3D('',#407,#335,#336);
#272=AXIS2_PLACEMENT_3D('',#411,#338,#339);
#273=AXIS2_PLACEMENT_3D('',#412,#340,#341);
#274=AXIS2_PLACEMENT_3D('',#413,#342,#343);
#275=AXIS2_PLACEMENT_3D('',#414,#344,#345);
#276=AXIS2_PLACEMENT_3D('',#415,#346,#347);
#277=AXIS2_PLACEMENT_3D('',#417,#348,#349);
#278=AXIS2_PLACEMENT_3D('',#420,#351,#352);
#279=AXIS2_PLACEMENT_3D('',#421,#353,#354);
#280=AXIS2_PLACEMENT_3D('',#424,#355,#356);
#281=AXIS2_PLACEMENT_3D('',#425,#357,#358);
#282=AXIS2_PLACEMENT_3D('',#429,#360,#361);
#283=AXIS2_PLACEMENT_3D('',#430,#362,#363);
#284=AXIS2_PLACEMENT_3D('',#431,#364,#365);
#285=AXIS2_PLACEMENT_3D('',#432,#366,#367);
#286=DIRECTION('axis',(0.,0.,1.));
#287=DIRECTION('refdir',(1.,0.,0.));
#288=DIRECTION('center_axis',(0.,0.,1.));
#289=DIRECTION('ref_axis',(-1.,0.,0.));
#290=DIRECTION('center_axis',(1.22464679914735E-16,0.,1.));
#291=DIRECTION('ref_axis',(-1.,0.,0.));
#292=DIRECTION('',(0.,0.,1.));
#293=DIRECTION('center_axis',(0.,0.,-1.));
#294=DIRECTION('ref_axis',(-1.,0.,0.));
#295=DIRECTION('center_axis',(0.,0.,-1.));
#296=DIRECTION('ref_axis',(-1.,0.,1.22464679914735E-16));
#297=DIRECTION('center_axis',(-1.22464679914735E-16,0.,-1.));
#298=DIRECTION('ref_axis',(0.,1.,0.));
#299=DIRECTION('center_axis',(-1.22464679914735E-16,0.,-1.));
#300=DIRECTION('ref_axis',(0.,1.,0.));
#301=DIRECTION('center_axis',(-1.22464679914735E-16,-1.,1.49975978266186E-32));
#302=DIRECTION('ref_axis',(1.,-1.22464679914735E-16,-1.22464679914735E-16));
#303=DIRECTION('center_axis',(-1.22464679914735E-16,0.,-1.));
#304=DIRECTION('ref_axis',(-1.,0.,1.22464679914735E-16));
#305=DIRECTION('center_axis',(0.,0.,1.));
#306=DIRECTION('ref_axis',(-1.,0.,0.));
#307=DIRECTION('center_axis',(0.,0.,1.));
#308=DIRECTION('ref_axis',(-1.,0.,0.));
#309=DIRECTION('',(0.,0.,1.));
#310=DIRECTION('center_axis',(0.,0.,-1.));
#311=DIRECTION('ref_axis',(-1.,0.,0.));
#312=DIRECTION('center_axis',(0.,0.,-1.));
#313=DIRECTION('ref_axis',(-1.,0.,0.));
#314=DIRECTION('center_axis',(0.,0.,1.));
#315=DIRECTION('ref_axis',(1.,0.,0.));
#316=DIRECTION('center_axis',(0.,0.,1.));
#317=DIRECTION('ref_axis',(0.,1.,0.));
#318=DIRECTION('center_axis',(0.,0.,1.));
#319=DIRECTION('ref_axis',(0.,1.,0.));
#320=DIRECTION('center_axis',(6.12323399573677E-17,0.,1.));
#321=DIRECTION('ref_axis',(1.,0.,0.));
#322=DIRECTION('center_axis',(1.22464679914735E-16,-1.,0.));
#323=DIRECTION('ref_axis',(-1.,-1.22464679914735E-16,0.));
#324=DIRECTION('center_axis',(0.,0.,1.));
#325=DIRECTION('ref_axis',(-1.,0.,0.));
#326=DIRECTION('center_axis',(0.,0.,1.));
#327=DIRECTION('ref_axis',(-1.,0.,0.));
#328=DIRECTION('',(0.,0.,1.));
#329=DIRECTION('center_axis',(0.,0.,-1.));
#330=DIRECTION('ref_axis',(-1.,0.,0.));
#331=DIRECTION('center_axis',(0.,0.,1.));
#332=DIRECTION('ref_axis',(1.,0.,0.));
#333=DIRECTION('center_axis',(0.,0.,1.));
#334=DIRECTION('ref_axis',(1.,0.,0.));
#335=DIRECTION('center_axis',(0.,0.,1.));
#336=DIRECTION('ref_axis',(1.,0.,0.));
#337=DIRECTION('',(0.,0.,-1.));
#338=DIRECTION('center_axis',(0.,0.,-1.));
#339=DIRECTION('ref_axis',(1.,0.,0.));
#340=DIRECTION('center_axis',(0.,0.,-1.));
#341=DIRECTION('ref_axis',(1.,0.,0.));
#342=DIRECTION('center_axis',(0.,0.,-1.));
#343=DIRECTION('ref_axis',(-1.,0.,0.));
#344=DIRECTION('center_axis',(0.,0.,1.));
#345=DIRECTION('ref_axis',(1.,0.,0.));
#346=DIRECTION('center_axis',(0.,0.,1.));
#347=DIRECTION('ref_axis',(-1.,0.,0.));
#348=DIRECTION('center_axis',(0.,0.,1.));
#349=DIRECTION('ref_axis',(-1.,0.,0.));
#350=DIRECTION('',(0.,0.,1.));
#351=DIRECTION('center_axis',(0.,0.,-1.));
#352=DIRECTION('ref_axis',(-1.,0.,0.));
#353=DIRECTION('center_axis',(0.,0.,1.));
#354=DIRECTION('ref_axis',(1.,0.,0.));
#355=DIRECTION('center_axis',(0.,0.,1.));
#356=DIRECTION('ref_axis',(1.,0.,0.));
#357=DIRECTION('center_axis',(0.,0.,1.));
#358=DIRECTION('ref_axis',(1.,0.,0.));
#359=DIRECTION('',(0.,0.,-1.));
#360=DIRECTION('center_axis',(0.,0.,-1.));
#361=DIRECTION('ref_axis',(1.,0.,0.));
#362=DIRECTION('center_axis',(0.,0.,-1.));
#363=DIRECTION('ref_axis',(1.,0.,0.));
#364=DIRECTION('center_axis',(0.,0.,-1.));
#365=DIRECTION('ref_axis',(-1.,0.,0.));
#366=DIRECTION('center_axis',(0.,0.,1.));
#367=DIRECTION('ref_axis',(1.,0.,0.));
#368=CARTESIAN_POINT('',(0.,0.,0.));
#369=CARTESIAN_POINT('Origin',(-72.,0.,0.));
#370=CARTESIAN_POINT('',(-69.75,-2.75545529808154E-16,0.));
#371=CARTESIAN_POINT('Origin',(-72.,0.,0.));
#372=CARTESIAN_POINT('',(-69.75,-2.75545529808154E-16,29.9155060127687));
#373=CARTESIAN_POINT('',(-69.75,2.75545529808154E-16,0.));
#374=CARTESIAN_POINT('Origin',(-72.,0.,29.9155060127687));
#375=CARTESIAN_POINT('Origin',(-72.,0.,8.81745695386094E-15));
#376=CARTESIAN_POINT('',(-72.,-30.,8.81745695386094E-15));
#377=CARTESIAN_POINT('',(-42.,-3.67394039744206E-15,5.14351655641888E-15));
#378=CARTESIAN_POINT('Origin',(-72.,0.,8.81745695386094E-15));
#379=CARTESIAN_POINT('Origin',(-72.,0.,8.81745695386094E-15));
#380=CARTESIAN_POINT('Origin',(-72.,0.,8.81745695386094E-15));
#381=CARTESIAN_POINT('Origin',(0.,0.,0.));
#382=CARTESIAN_POINT('Origin',(0.,0.,0.));
#383=CARTESIAN_POINT('',(2.25,-2.75545529808154E-16,0.));
#384=CARTESIAN_POINT('Origin',(0.,0.,0.));
#385=CARTESIAN_POINT('',(2.25,-2.75545529808154E-16,29.9155060127687));
#386=CARTESIAN_POINT('',(2.25,2.75545529808154E-16,0.));
#387=CARTESIAN_POINT('',(-2.25,-2.75545529808154E-16,29.9155060127687));
#388=CARTESIAN_POINT('Origin',(0.,0.,29.9155060127687));
#389=CARTESIAN_POINT('Origin',(0.,0.,29.9155060127687));
#390=CARTESIAN_POINT('Origin',(0.,0.,0.));
#391=CARTESIAN_POINT('',(3.67394039744206E-15,-30.,0.));
#392=CARTESIAN_POINT('',(-30.,-3.67394039744206E-15,0.));
#393=CARTESIAN_POINT('Origin',(0.,0.,0.));
#394=CARTESIAN_POINT('Origin',(0.,0.,0.));
#395=CARTESIAN_POINT('Origin',(0.,0.,0.));
#396=CARTESIAN_POINT('Origin',(0.,0.,0.));
#397=CARTESIAN_POINT('Origin',(72.,0.,0.));
#398=CARTESIAN_POINT('',(74.25,-2.75545529808154E-16,0.));
#399=CARTESIAN_POINT('Origin',(72.,0.,0.));
#400=CARTESIAN_POINT('',(74.25,-2.75545529808154E-16,45.));
#401=CARTESIAN_POINT('',(74.25,2.75545529808154E-16,0.));
#402=CARTESIAN_POINT('Origin',(72.,0.,45.));
#403=CARTESIAN_POINT('Origin',(72.,0.,22.5));
#404=CARTESIAN_POINT('',(102.,0.,45.));
#405=CARTESIAN_POINT('',(42.,-3.67394039744206E-15,45.));
#406=CARTESIAN_POINT('Origin',(72.,0.,45.));
#407=CARTESIAN_POINT('Origin',(72.,0.,45.));
#408=CARTESIAN_POINT('',(42.,-3.67394039744206E-15,0.));
#409=CARTESIAN_POINT('',(42.,-3.67394039744206E-15,22.5));
#410=CARTESIAN_POINT('',(102.,0.,0.));
#411=CARTESIAN_POINT('Origin',(72.,0.,0.));
#412=CARTESIAN_POINT('Origin',(72.,0.,0.));
#413=CARTESIAN_POINT('Origin',(72.,0.,0.));
#414=CARTESIAN_POINT('Origin',(72.,0.,45.));
#415=CARTESIAN_POINT('Origin',(144.,0.,0.));
#416=CARTESIAN_POINT('',(146.25,-2.75545529808154E-16,0.));
#417=CARTESIAN_POINT('Origin',(144.,0.,0.));
#418=CARTESIAN_POINT('',(146.25,-2.75545529808154E-16,45.));
#419=CARTESIAN_POINT('',(146.25,2.75545529808154E-16,0.));
#420=CARTESIAN_POINT('Origin',(144.,0.,45.));
#421=CARTESIAN_POINT('Origin',(144.,0.,22.5));
#422=CARTESIAN_POINT('',(174.,0.,45.));
#423=CARTESIAN_POINT('',(114.,-3.67394039744206E-15,45.));
#424=CARTESIAN_POINT('Origin',(144.,0.,45.));
#425=CARTESIAN_POINT('Origin',(144.,0.,45.));
#426=CARTESIAN_POINT('',(114.,-3.67394039744206E-15,0.));
#427=CARTESIAN_POINT('',(114.,-3.67394039744206E-15,22.5));
#428=CARTESIAN_POINT('',(174.,0.,0.));
#429=CARTESIAN_POINT('Origin',(144.,0.,0.));
#430=CARTESIAN_POINT('Origin',(144.,0.,0.));
#431=CARTESIAN_POINT('Origin',(144.,0.,0.));
#432=CARTESIAN_POINT('Origin',(144.,0.,45.));
#433=UNCERTAINTY_MEASURE_WITH_UNIT(LENGTH_MEASURE(0.01),#439,
'DISTANCE_ACCURACY_VALUE',
'Maximum model space distance between geometric entities at asserted c
onnectivities');
#434=UNCERTAINTY_MEASURE_WITH_UNIT(LENGTH_MEASURE(0.01),#439,
'DISTANCE_ACCURACY_VALUE',
'Maximum model space distance between geometric entities at asserted c
onnectivities');
#435=(
GEOMETRIC_REPRESENTATION_CONTEXT(3)
GLOBAL_UNCERTAINTY_ASSIGNED_CONTEXT((#433))
GLOBAL_UNIT_ASSIGNED_CONTEXT((#439,#438,#437))
REPRESENTATION_CONTEXT('','3D')
);
#436=(
GEOMETRIC_REPRESENTATION_CONTEXT(3)
GLOBAL_UNCERTAINTY_ASSIGNED_CONTEXT((#434))
GLOBAL_UNIT_ASSIGNED_CONTEXT((#439,#438,#437))
REPRESENTATION_CONTEXT('','3D')
);
#437=(
NAMED_UNIT(*)
SI_UNIT($,.STERADIAN.)
SOLID_ANGLE_UNIT()
);
#438=(
NAMED_UNIT(*)
PLANE_ANGLE_UNIT()
SI_UNIT($,.RADIAN.)
);
#439=(
LENGTH_UNIT()
NAMED_UNIT(*)
SI_UNIT(.MILLI.,.METRE.)
);
#440=(
LENGTH_UNIT()
NAMED_UNIT(*)
SI_UNIT($,.METRE.)
);
#441=SHAPE_DEFINITION_REPRESENTATION(#442,#443);
#442=PRODUCT_DEFINITION_SHAPE('',$,#445);
#443=SHAPE_REPRESENTATION('',(#248),#435);
#444=PRODUCT_DEFINITION_CONTEXT('part definition',#449,'design');
#445=PRODUCT_DEFINITION('sphere_engraving_support',
'sphere_engraving_support v3',#446,#444);
#446=PRODUCT_DEFINITION_FORMATION('',$,#451);
#447=PRODUCT_RELATED_PRODUCT_CATEGORY('sphere_engraving_support v3',
'sphere_engraving_support v3',(#451));
#448=APPLICATION_PROTOCOL_DEFINITION('international standard',
'automotive_design',2009,#449);
#449=APPLICATION_CONTEXT(
'Core Data for Automotive Mechanical Design Process');
#450=PRODUCT_CONTEXT('part definition',#449,'mechanical');
#451=PRODUCT('sphere_engraving_support','sphere_engraving_support v3',$,
(#450));
#452=PRESENTATION_STYLE_ASSIGNMENT((#453));
#453=SURFACE_STYLE_USAGE(.BOTH.,#454);
#454=SURFACE_SIDE_STYLE('',(#455));
#455=SURFACE_STYLE_FILL_AREA(#456);
#456=FILL_AREA_STYLE('Steel - Satin',(#457));
#457=FILL_AREA_STYLE_COLOUR('Steel - Satin',#458);
#458=COLOUR_RGB('Steel - Satin',0.627450980392157,0.627450980392157,0.627450980392157);
ENDSEC;
END-ISO-10303-21;
