ISO-10303-21;
HEADER;
/* Generated by software containing ST-Developer
 * from STEP Tools, Inc. (www.steptools.com) 
 */

FILE_DESCRIPTION(
/* description */ (''),
/* implementation_level */ '2;1');

FILE_NAME(
/* name */ 
'/Users/naganoyoshie/Documents/FabAcademy/kae-nagano/docs/images/week0
6/ring v2.step',
/* time_stamp */ '2019-02-26T21:46:45+09:00',
/* author */ ('kae0104nagano@i.softbank.jp'),
/* organization */ (''),
/* preprocessor_version */ 'ST-DEVELOPER v17.2',
/* originating_system */ 'Autodesk Translation Framework v7.6.0.251',
/* authorisation */ '');

FILE_SCHEMA (('AUTOMOTIVE_DESIGN { 1 0 10303 214 3 1 1 }'));
ENDSEC;

DATA;
#10=MECHANICAL_DESIGN_GEOMETRIC_PRESENTATION_REPRESENTATION('',(#25),#91);
#11=ITEM_DEFINED_TRANSFORMATION($,$,#54,#58);
#12=ITEM_DEFINED_TRANSFORMATION($,$,#54,#59);
#13=ITEM_DEFINED_TRANSFORMATION($,$,#54,#60);
#14=(
REPRESENTATION_RELATIONSHIP($,$,#104,#103)
REPRESENTATION_RELATIONSHIP_WITH_TRANSFORMATION(#11)
SHAPE_REPRESENTATION_RELATIONSHIP()
);
#15=(
REPRESENTATION_RELATIONSHIP($,$,#104,#103)
REPRESENTATION_RELATIONSHIP_WITH_TRANSFORMATION(#12)
SHAPE_REPRESENTATION_RELATIONSHIP()
);
#16=(
REPRESENTATION_RELATIONSHIP($,$,#104,#103)
REPRESENTATION_RELATIONSHIP_WITH_TRANSFORMATION(#13)
SHAPE_REPRESENTATION_RELATIONSHIP()
);
#17=CONTEXT_DEPENDENT_SHAPE_REPRESENTATION(#14,#100);
#18=CONTEXT_DEPENDENT_SHAPE_REPRESENTATION(#15,#101);
#19=CONTEXT_DEPENDENT_SHAPE_REPRESENTATION(#16,#102);
#20=NEXT_ASSEMBLY_USAGE_OCCURRENCE('Component1:1','Component1:1',
'Component1:1',#106,#107,'Component1:1');
#21=NEXT_ASSEMBLY_USAGE_OCCURRENCE('Component1:2','Component1:2',
'Component1:2',#106,#107,'Component1:2');
#22=NEXT_ASSEMBLY_USAGE_OCCURRENCE('Component1:3','Component1:3',
'Component1:3',#106,#107,'Component1:3');
#23=SHAPE_REPRESENTATION_RELATIONSHIP('SRR','None',#104,#24);
#24=ADVANCED_BREP_SHAPE_REPRESENTATION('',(#26),#90);
#25=STYLED_ITEM('',(#117),#26);
#26=MANIFOLD_SOLID_BREP('Body1',#40);
#27=FACE_OUTER_BOUND('',#28,.T.);
#28=EDGE_LOOP('',(#34,#35,#36,#37));
#29=CIRCLE('',#56,2.5);
#30=CIRCLE('',#57,12.5);
#31=VERTEX_POINT('',#80);
#32=EDGE_CURVE('',#31,#31,#29,.T.);
#33=EDGE_CURVE('',#31,#31,#30,.T.);
#34=ORIENTED_EDGE('',*,*,#32,.F.);
#35=ORIENTED_EDGE('',*,*,#33,.T.);
#36=ORIENTED_EDGE('',*,*,#32,.T.);
#37=ORIENTED_EDGE('',*,*,#33,.F.);
#38=TOROIDAL_SURFACE('',#55,15.,2.5);
#39=ADVANCED_FACE('',(#27),#38,.T.);
#40=CLOSED_SHELL('',(#39));
#41=DERIVED_UNIT_ELEMENT(#43,1.);
#42=DERIVED_UNIT_ELEMENT(#93,3.);
#43=(
MASS_UNIT()
NAMED_UNIT(*)
SI_UNIT(.KILO.,.GRAM.)
);
#44=DERIVED_UNIT((#41,#42));
#45=MEASURE_REPRESENTATION_ITEM('density measure',
POSITIVE_RATIO_MEASURE(7850.),#44);
#46=PROPERTY_DEFINITION_REPRESENTATION(#51,#48);
#47=PROPERTY_DEFINITION_REPRESENTATION(#52,#49);
#48=REPRESENTATION('material name',(#50),#90);
#49=REPRESENTATION('density',(#45),#90);
#50=DESCRIPTIVE_REPRESENTATION_ITEM('Steel','Steel');
#51=PROPERTY_DEFINITION('material property','material name',#107);
#52=PROPERTY_DEFINITION('material property','density of part',#107);
#53=AXIS2_PLACEMENT_3D('placement',#77,#61,#62);
#54=AXIS2_PLACEMENT_3D('placement',#78,#63,#64);
#55=AXIS2_PLACEMENT_3D('',#79,#65,#66);
#56=AXIS2_PLACEMENT_3D('',#81,#67,#68);
#57=AXIS2_PLACEMENT_3D('',#82,#69,#70);
#58=AXIS2_PLACEMENT_3D('',#83,#71,#72);
#59=AXIS2_PLACEMENT_3D('',#84,#73,#74);
#60=AXIS2_PLACEMENT_3D('',#85,#75,#76);
#61=DIRECTION('axis',(0.,0.,1.));
#62=DIRECTION('refdir',(1.,0.,0.));
#63=DIRECTION('axis',(0.,0.,1.));
#64=DIRECTION('refdir',(1.,0.,0.));
#65=DIRECTION('center_axis',(0.,0.,1.));
#66=DIRECTION('ref_axis',(1.,0.,0.));
#67=DIRECTION('center_axis',(1.22464679914735E-16,-1.,0.));
#68=DIRECTION('ref_axis',(-1.,-1.22464679914735E-16,0.));
#69=DIRECTION('center_axis',(0.,0.,-1.));
#70=DIRECTION('ref_axis',(1.,0.,0.));
#71=DIRECTION('',(0.,0.,1.));
#72=DIRECTION('',(1.,0.,0.));
#73=DIRECTION('',(0.625387053368236,0.,0.780314701565593));
#74=DIRECTION('',(0.780314701565591,0.,-0.625387053368235));
#75=DIRECTION('',(-0.780314701565593,0.,0.625387053368236));
#76=DIRECTION('',(0.625387053368235,0.,0.780314701565592));
#77=CARTESIAN_POINT('',(0.,0.,0.));
#78=CARTESIAN_POINT('',(0.,0.,0.));
#79=CARTESIAN_POINT('Origin',(0.,0.,0.));
#80=CARTESIAN_POINT('',(-12.5,-1.53080849893419E-15,3.06161699786838E-16));
#81=CARTESIAN_POINT('Origin',(-15.,-1.83697019872103E-15,0.));
#82=CARTESIAN_POINT('Origin',(0.,0.,-3.06161699786838E-16));
#83=CARTESIAN_POINT('',(0.,0.,0.));
#84=CARTESIAN_POINT('',(-1.30239762694625E-16,15.5379279935694,-3.70758817287398E-16));
#85=CARTESIAN_POINT('',(-2.22088148908256E-16,24.2313275942978,4.6260720350103E-16));
#86=UNCERTAINTY_MEASURE_WITH_UNIT(LENGTH_MEASURE(0.01),#92,
'DISTANCE_ACCURACY_VALUE',
'Maximum model space distance between geometric entities at asserted c
onnectivities');
#87=UNCERTAINTY_MEASURE_WITH_UNIT(LENGTH_MEASURE(0.01),#92,
'DISTANCE_ACCURACY_VALUE',
'Maximum model space distance between geometric entities at asserted c
onnectivities');
#88=UNCERTAINTY_MEASURE_WITH_UNIT(LENGTH_MEASURE(0.01),#92,
'DISTANCE_ACCURACY_VALUE',
'Maximum model space distance between geometric entities at asserted c
onnectivities');
#89=(
GEOMETRIC_REPRESENTATION_CONTEXT(3)
GLOBAL_UNCERTAINTY_ASSIGNED_CONTEXT((#86))
GLOBAL_UNIT_ASSIGNED_CONTEXT((#92,#94,#95))
REPRESENTATION_CONTEXT('','3D')
);
#90=(
GEOMETRIC_REPRESENTATION_CONTEXT(3)
GLOBAL_UNCERTAINTY_ASSIGNED_CONTEXT((#87))
GLOBAL_UNIT_ASSIGNED_CONTEXT((#92,#94,#95))
REPRESENTATION_CONTEXT('','3D')
);
#91=(
GEOMETRIC_REPRESENTATION_CONTEXT(3)
GLOBAL_UNCERTAINTY_ASSIGNED_CONTEXT((#88))
GLOBAL_UNIT_ASSIGNED_CONTEXT((#92,#94,#95))
REPRESENTATION_CONTEXT('','3D')
);
#92=(
LENGTH_UNIT()
NAMED_UNIT(*)
SI_UNIT(.MILLI.,.METRE.)
);
#93=(
LENGTH_UNIT()
NAMED_UNIT(*)
SI_UNIT($,.METRE.)
);
#94=(
NAMED_UNIT(*)
PLANE_ANGLE_UNIT()
SI_UNIT($,.RADIAN.)
);
#95=(
NAMED_UNIT(*)
SI_UNIT($,.STERADIAN.)
SOLID_ANGLE_UNIT()
);
#96=SHAPE_DEFINITION_REPRESENTATION(#98,#103);
#97=SHAPE_DEFINITION_REPRESENTATION(#99,#104);
#98=PRODUCT_DEFINITION_SHAPE('',$,#106);
#99=PRODUCT_DEFINITION_SHAPE('',$,#107);
#100=PRODUCT_DEFINITION_SHAPE($,$,#20);
#101=PRODUCT_DEFINITION_SHAPE($,$,#21);
#102=PRODUCT_DEFINITION_SHAPE($,$,#22);
#103=SHAPE_REPRESENTATION('',(#53,#58,#59,#60),#89);
#104=SHAPE_REPRESENTATION('',(#54),#90);
#105=PRODUCT_DEFINITION_CONTEXT('part definition',#113,'design');
#106=PRODUCT_DEFINITION('ring','ring v2',#108,#105);
#107=PRODUCT_DEFINITION('Component1','Component1',#109,#105);
#108=PRODUCT_DEFINITION_FORMATION('',$,#115);
#109=PRODUCT_DEFINITION_FORMATION('',$,#116);
#110=PRODUCT_RELATED_PRODUCT_CATEGORY('ring v2','ring v2',(#115));
#111=PRODUCT_RELATED_PRODUCT_CATEGORY('Component1','Component1',(#116));
#112=APPLICATION_PROTOCOL_DEFINITION('international standard',
'automotive_design',2009,#113);
#113=APPLICATION_CONTEXT(
'Core Data for Automotive Mechanical Design Process');
#114=PRODUCT_CONTEXT('part definition',#113,'mechanical');
#115=PRODUCT('ring','ring v2',$,(#114));
#116=PRODUCT('Component1','Component1',$,(#114));
#117=PRESENTATION_STYLE_ASSIGNMENT((#118));
#118=SURFACE_STYLE_USAGE(.BOTH.,#119);
#119=SURFACE_SIDE_STYLE('',(#120));
#120=SURFACE_STYLE_FILL_AREA(#121);
#121=FILL_AREA_STYLE('Steel - Satin',(#122));
#122=FILL_AREA_STYLE_COLOUR('Steel - Satin',#123);
#123=COLOUR_RGB('Steel - Satin',0.627450980392157,0.627450980392157,0.627450980392157);
ENDSEC;
END-ISO-10303-21;
