ISO-10303-21;
HEADER;
/* Generated by software containing ST-Developer
 * from STEP Tools, Inc. (www.steptools.com) 
 */
/* OPTION: using custom schema-name function */

FILE_DESCRIPTION(
/* description */ (''),
/* implementation_level */ '2;1');

FILE_NAME(
/* name */ 'POTCover',
/* time_stamp */ '2024-06-10T04:13:20+01:00',
/* author */ (''),
/* organization */ (''),
/* preprocessor_version */ 'ST-DEVELOPER v16.5',
/* originating_system */ 'Rhino 7.37',
/* authorisation */ '');

FILE_SCHEMA (('CONFIG_CONTROL_DESIGN'));
ENDSEC;

DATA;
#10=SHAPE_REPRESENTATION_RELATIONSHIP('','',#237,#12);
#11=MANIFOLD_SOLID_BREP('brep_1',#13);
#12=ADVANCED_BREP_SHAPE_REPRESENTATION('brep_rep_0',(#11,#247),#236);
#13=CLOSED_SHELL('',(#14,#15,#16,#17,#18,#19,#20,#21,#22));
#14=ADVANCED_FACE('',(#25,#23),#145,.T.);
#15=ADVANCED_FACE('',(#26,#24),#146,.T.);
#16=ADVANCED_FACE('',(#27),#147,.T.);
#17=ADVANCED_FACE('',(#28),#143,.T.);
#18=ADVANCED_FACE('',(#29),#144,.T.);
#19=ADVANCED_FACE('',(#30),#148,.T.);
#20=ADVANCED_FACE('',(#31),#149,.F.);
#21=ADVANCED_FACE('',(#32),#149,.F.);
#22=ADVANCED_FACE('',(#33),#150,.F.);
#23=FACE_BOUND('',#35,.T.);
#24=FACE_BOUND('',#37,.T.);
#25=FACE_OUTER_BOUND('',#34,.T.);
#26=FACE_OUTER_BOUND('',#36,.T.);
#27=FACE_OUTER_BOUND('',#38,.T.);
#28=FACE_OUTER_BOUND('',#39,.T.);
#29=FACE_OUTER_BOUND('',#40,.T.);
#30=FACE_OUTER_BOUND('',#41,.T.);
#31=FACE_OUTER_BOUND('',#42,.T.);
#32=FACE_OUTER_BOUND('',#43,.T.);
#33=FACE_OUTER_BOUND('',#44,.T.);
#34=EDGE_LOOP('',(#45));
#35=EDGE_LOOP('',(#46));
#36=EDGE_LOOP('',(#47,#48,#49,#50,#51));
#37=EDGE_LOOP('',(#52));
#38=EDGE_LOOP('',(#53,#54,#55,#56,#57,#58));
#39=EDGE_LOOP('',(#59,#60,#61,#62));
#40=EDGE_LOOP('',(#63,#64,#65,#66));
#41=EDGE_LOOP('',(#67,#68,#69,#70,#71,#72,#73,#74));
#42=EDGE_LOOP('',(#75,#76,#77,#78));
#43=EDGE_LOOP('',(#79,#80,#81,#82));
#44=EDGE_LOOP('',(#83,#84,#85,#86));
#45=ORIENTED_EDGE('',*,*,#87,.F.);
#46=ORIENTED_EDGE('',*,*,#105,.F.);
#47=ORIENTED_EDGE('',*,*,#98,.T.);
#48=ORIENTED_EDGE('',*,*,#102,.T.);
#49=ORIENTED_EDGE('',*,*,#99,.T.);
#50=ORIENTED_EDGE('',*,*,#101,.T.);
#51=ORIENTED_EDGE('',*,*,#100,.T.);
#52=ORIENTED_EDGE('',*,*,#106,.T.);
#53=ORIENTED_EDGE('',*,*,#95,.T.);
#54=ORIENTED_EDGE('',*,*,#96,.T.);
#55=ORIENTED_EDGE('',*,*,#88,.T.);
#56=ORIENTED_EDGE('',*,*,#94,.T.);
#57=ORIENTED_EDGE('',*,*,#97,.T.);
#58=ORIENTED_EDGE('',*,*,#89,.T.);
#59=ORIENTED_EDGE('',*,*,#90,.F.);
#60=ORIENTED_EDGE('',*,*,#98,.F.);
#61=ORIENTED_EDGE('',*,*,#92,.F.);
#62=ORIENTED_EDGE('',*,*,#94,.F.);
#63=ORIENTED_EDGE('',*,*,#95,.F.);
#64=ORIENTED_EDGE('',*,*,#93,.F.);
#65=ORIENTED_EDGE('',*,*,#99,.F.);
#66=ORIENTED_EDGE('',*,*,#91,.F.);
#67=ORIENTED_EDGE('',*,*,#102,.F.);
#68=ORIENTED_EDGE('',*,*,#90,.T.);
#69=ORIENTED_EDGE('',*,*,#88,.F.);
#70=ORIENTED_EDGE('',*,*,#104,.F.);
#71=ORIENTED_EDGE('',*,*,#87,.T.);
#72=ORIENTED_EDGE('',*,*,#104,.T.);
#73=ORIENTED_EDGE('',*,*,#96,.F.);
#74=ORIENTED_EDGE('',*,*,#91,.T.);
#75=ORIENTED_EDGE('',*,*,#103,.T.);
#76=ORIENTED_EDGE('',*,*,#97,.F.);
#77=ORIENTED_EDGE('',*,*,#92,.T.);
#78=ORIENTED_EDGE('',*,*,#100,.F.);
#79=ORIENTED_EDGE('',*,*,#93,.T.);
#80=ORIENTED_EDGE('',*,*,#89,.F.);
#81=ORIENTED_EDGE('',*,*,#103,.F.);
#82=ORIENTED_EDGE('',*,*,#101,.F.);
#83=ORIENTED_EDGE('',*,*,#105,.T.);
#84=ORIENTED_EDGE('',*,*,#107,.T.);
#85=ORIENTED_EDGE('',*,*,#106,.F.);
#86=ORIENTED_EDGE('',*,*,#107,.F.);
#87=EDGE_CURVE('',#129,#129,#116,.T.);
#88=EDGE_CURVE('',#130,#132,#117,.T.);
#89=EDGE_CURVE('',#131,#135,#118,.T.);
#90=EDGE_CURVE('',#136,#132,#108,.T.);
#91=EDGE_CURVE('',#133,#137,#109,.T.);
#92=EDGE_CURVE('',#134,#139,#110,.T.);
#93=EDGE_CURVE('',#140,#135,#111,.T.);
#94=EDGE_CURVE('',#132,#134,#112,.T.);
#95=EDGE_CURVE('',#135,#133,#113,.T.);
#96=EDGE_CURVE('',#133,#130,#119,.T.);
#97=EDGE_CURVE('',#134,#131,#120,.T.);
#98=EDGE_CURVE('',#139,#136,#114,.T.);
#99=EDGE_CURVE('',#137,#140,#115,.T.);
#100=EDGE_CURVE('',#138,#139,#121,.T.);
#101=EDGE_CURVE('',#140,#138,#122,.T.);
#102=EDGE_CURVE('',#136,#137,#123,.T.);
#103=EDGE_CURVE('',#138,#131,#124,.T.);
#104=EDGE_CURVE('',#129,#130,#125,.T.);
#105=EDGE_CURVE('',#141,#141,#126,.T.);
#106=EDGE_CURVE('',#142,#142,#127,.T.);
#107=EDGE_CURVE('',#141,#142,#128,.T.);
#108=B_SPLINE_CURVE_WITH_KNOTS('',1,(#302,#303),.UNSPECIFIED.,.F.,.F.,(2,
2),(0.,11.3693364123386),.UNSPECIFIED.);
#109=B_SPLINE_CURVE_WITH_KNOTS('',1,(#304,#305),.UNSPECIFIED.,.F.,.F.,(2,
2),(-11.3693364123386,0.),.UNSPECIFIED.);
#110=B_SPLINE_CURVE_WITH_KNOTS('',1,(#306,#307),.UNSPECIFIED.,.F.,.F.,(2,
2),(-11.3693364123386,0.),.UNSPECIFIED.);
#111=B_SPLINE_CURVE_WITH_KNOTS('',1,(#308,#309),.UNSPECIFIED.,.F.,.F.,(2,
2),(0.,11.3693364123386),.UNSPECIFIED.);
#112=B_SPLINE_CURVE_WITH_KNOTS('',1,(#310,#311),.UNSPECIFIED.,.F.,.F.,(2,
2),(-2.45350844621898,-0.581970403716726),.UNSPECIFIED.);
#113=B_SPLINE_CURVE_WITH_KNOTS('',1,(#312,#313),.UNSPECIFIED.,.F.,.F.,(2,
2),(-27.8789101996505,-26.0073721571972),.UNSPECIFIED.);
#114=B_SPLINE_CURVE_WITH_KNOTS('',1,(#324,#325),.UNSPECIFIED.,.F.,.F.,(2,
2),(0.581970403716728,2.45350844621897),.UNSPECIFIED.);
#115=B_SPLINE_CURVE_WITH_KNOTS('',1,(#326,#327),.UNSPECIFIED.,.F.,.F.,(2,
2),(26.0073721571972,27.8789101996505),.UNSPECIFIED.);
#116=(
BOUNDED_CURVE()
B_SPLINE_CURVE(2,(#283,#284,#285,#286,#287,#288,#289,#290,#291),
 .UNSPECIFIED.,.T.,.F.)
B_SPLINE_CURVE_WITH_KNOTS((3,2,2,2,3),(0.,15.079644737231,30.159289474462,
45.238934211693,60.318578948924),.UNSPECIFIED.)
CURVE()
GEOMETRIC_REPRESENTATION_ITEM()
RATIONAL_B_SPLINE_CURVE((1.,0.707106781186548,1.,0.707106781186548,1.,0.707106781186548,
1.,0.707106781186548,1.))
REPRESENTATION_ITEM('')
);
#117=(
BOUNDED_CURVE()
B_SPLINE_CURVE(2,(#292,#293,#294,#295,#296,#297,#298),.UNSPECIFIED.,.F.,
 .F.)
B_SPLINE_CURVE_WITH_KNOTS((3,2,2,3),(0.,15.079644737231,30.159289474462,
36.660477366098),.UNSPECIFIED.)
CURVE()
GEOMETRIC_REPRESENTATION_ITEM()
RATIONAL_B_SPLINE_CURVE((1.,0.707106781186548,1.,0.707106781186548,1.,0.944179395978616,
1.))
REPRESENTATION_ITEM('')
);
#118=(
BOUNDED_CURVE()
B_SPLINE_CURVE(2,(#299,#300,#301),.UNSPECIFIED.,.F.,.F.)
B_SPLINE_CURVE_WITH_KNOTS((3,3),(60.318578948924,64.7510648764067),
 .UNSPECIFIED.)
CURVE()
GEOMETRIC_REPRESENTATION_ITEM()
RATIONAL_B_SPLINE_CURVE((1.,0.968271335575507,1.))
REPRESENTATION_ITEM('')
);
#119=(
BOUNDED_CURVE()
B_SPLINE_CURVE(2,(#314,#315,#316),.UNSPECIFIED.,.F.,.F.)
B_SPLINE_CURVE_WITH_KNOTS((3,3),(53.7675944553297,60.318578948924),
 .UNSPECIFIED.)
CURVE()
GEOMETRIC_REPRESENTATION_ITEM()
RATIONAL_B_SPLINE_CURVE((1.,0.943277458058254,1.))
REPRESENTATION_ITEM('')
);
#120=(
BOUNDED_CURVE()
B_SPLINE_CURVE(2,(#317,#318,#319,#320,#321,#322,#323),.UNSPECIFIED.,.F.,
 .F.)
B_SPLINE_CURVE_WITH_KNOTS((3,2,2,3),(82.8156942768443,87.2030302093768,
100.645255839603,114.08748146983),.UNSPECIFIED.)
CURVE()
GEOMETRIC_REPRESENTATION_ITEM()
RATIONAL_B_SPLINE_CURVE((1.,0.968949265708743,1.,0.707106781186548,1.,0.707106781186548,
1.))
REPRESENTATION_ITEM('')
);
#121=(
BOUNDED_CURVE()
B_SPLINE_CURVE(2,(#328,#329,#330,#331,#332,#333,#334,#335,#336),
 .UNSPECIFIED.,.F.,.F.)
B_SPLINE_CURVE_WITH_KNOTS((3,2,2,2,3),(-114.08748146983,-106.269534671583,
-98.4515878733369,-90.6336410750906,-82.8156942768443),.UNSPECIFIED.)
CURVE()
GEOMETRIC_REPRESENTATION_ITEM()
RATIONAL_B_SPLINE_CURVE((1.,0.898189893733842,1.,0.898189893733842,1.,0.898189893733842,
1.,0.898189893733842,1.))
REPRESENTATION_ITEM('')
);
#122=(
BOUNDED_CURVE()
B_SPLINE_CURVE(2,(#337,#338,#339),.UNSPECIFIED.,.F.,.F.)
B_SPLINE_CURVE_WITH_KNOTS((3,3),(-64.7510648764067,-60.318578948924),
 .UNSPECIFIED.)
CURVE()
GEOMETRIC_REPRESENTATION_ITEM()
RATIONAL_B_SPLINE_CURVE((1.,0.968271335575508,1.))
REPRESENTATION_ITEM('')
);
#123=(
BOUNDED_CURVE()
B_SPLINE_CURVE(2,(#340,#341,#342,#343,#344),.UNSPECIFIED.,.F.,.F.)
B_SPLINE_CURVE_WITH_KNOTS((3,2,3),(36.660477366098,45.238934211693,53.7675944553297),
 .UNSPECIFIED.)
CURVE()
GEOMETRIC_REPRESENTATION_ITEM()
RATIONAL_B_SPLINE_CURVE((1.,0.900579067507492,1.,0.901761211695776,1.))
REPRESENTATION_ITEM('')
);
#124=(
BOUNDED_CURVE()
B_SPLINE_CURVE(1,(#345,#346),.UNSPECIFIED.,.F.,.F.)
B_SPLINE_CURVE_WITH_KNOTS((2,2),(1.36812889647326,14.),.UNSPECIFIED.)
CURVE()
GEOMETRIC_REPRESENTATION_ITEM()
RATIONAL_B_SPLINE_CURVE((1.,1.))
REPRESENTATION_ITEM('')
);
#125=(
BOUNDED_CURVE()
B_SPLINE_CURVE(1,(#347,#348,#349),.UNSPECIFIED.,.F.,.F.)
B_SPLINE_CURVE_WITH_KNOTS((2,1,2),(0.,1.36812889647326,14.),
 .UNSPECIFIED.)
CURVE()
GEOMETRIC_REPRESENTATION_ITEM()
RATIONAL_B_SPLINE_CURVE((1.,1.,1.))
REPRESENTATION_ITEM('')
);
#126=(
BOUNDED_CURVE()
B_SPLINE_CURVE(2,(#350,#351,#352,#353,#354,#355,#356,#357,#358),
 .UNSPECIFIED.,.T.,.F.)
B_SPLINE_CURVE_WITH_KNOTS((3,2,2,2,3),(-22.6908021926503,-17.0181016444877,
-11.3454010963251,-5.67270054816257,0.),.UNSPECIFIED.)
CURVE()
GEOMETRIC_REPRESENTATION_ITEM()
RATIONAL_B_SPLINE_CURVE((1.,0.707106781186548,1.,0.707106781186548,1.,0.707106781186548,
1.,0.707106781186548,1.))
REPRESENTATION_ITEM('')
);
#127=(
BOUNDED_CURVE()
B_SPLINE_CURVE(2,(#359,#360,#361,#362,#363,#364,#365,#366,#367),
 .UNSPECIFIED.,.T.,.F.)
B_SPLINE_CURVE_WITH_KNOTS((3,2,2,2,3),(-22.6908021926503,-17.0181016444877,
-11.3454010963251,-5.67270054816257,0.),.UNSPECIFIED.)
CURVE()
GEOMETRIC_REPRESENTATION_ITEM()
RATIONAL_B_SPLINE_CURVE((1.,0.707106781186548,1.,0.707106781186548,1.,0.707106781186548,
1.,0.707106781186548,1.))
REPRESENTATION_ITEM('')
);
#128=(
BOUNDED_CURVE()
B_SPLINE_CURVE(1,(#368,#369),.UNSPECIFIED.,.F.,.F.)
B_SPLINE_CURVE_WITH_KNOTS((2,2),(0.575529010238907,1.94365790671217),
 .UNSPECIFIED.)
CURVE()
GEOMETRIC_REPRESENTATION_ITEM()
RATIONAL_B_SPLINE_CURVE((1.,1.))
REPRESENTATION_ITEM('')
);
#129=VERTEX_POINT('',#269);
#130=VERTEX_POINT('',#270);
#131=VERTEX_POINT('',#271);
#132=VERTEX_POINT('',#272);
#133=VERTEX_POINT('',#273);
#134=VERTEX_POINT('',#274);
#135=VERTEX_POINT('',#275);
#136=VERTEX_POINT('',#276);
#137=VERTEX_POINT('',#277);
#138=VERTEX_POINT('',#278);
#139=VERTEX_POINT('',#279);
#140=VERTEX_POINT('',#280);
#141=VERTEX_POINT('',#281);
#142=VERTEX_POINT('',#282);
#143=PLANE('',#241);
#144=PLANE('',#242);
#145=PLANE('',#244);
#146=PLANE('',#245);
#147=PLANE('',#246);
#148=CYLINDRICAL_SURFACE('',#239,9.6);
#149=CYLINDRICAL_SURFACE('',#240,8.55758662082839);
#150=CYLINDRICAL_SURFACE('',#243,3.61135333168071);
#151=SHAPE_DEFINITION_REPRESENTATION(#152,#237);
#152=PRODUCT_DEFINITION_SHAPE('Document','',#154);
#153=PRODUCT_DEFINITION_CONTEXT('3D Mechanical Parts',#226,'design');
#154=PRODUCT_DEFINITION('A','First version',#196,#153);
#155=DATE_TIME_ROLE('classification_date');
#156=DATE_TIME_ROLE('creation_date');
#157=APPLIED_DATE_AND_TIME_ASSIGNMENT(#181,#155,(#160));
#158=APPLIED_DATE_AND_TIME_ASSIGNMENT(#183,#156,(#154));
#159=SECURITY_CLASSIFICATION_LEVEL('unclassified');
#160=SECURITY_CLASSIFICATION('A','Security for version',#159);
#161=APPLIED_SECURITY_CLASSIFICATION_ASSIGNMENT(#160,(#196));
#162=APPROVAL_ROLE('Version approval');
#163=APPROVAL_ROLE('Version Security approval');
#164=APPROVAL_ROLE('Definition approval');
#165=APPROVAL_PERSON_ORGANIZATION(#214,#190,#162);
#166=APPROVAL_PERSON_ORGANIZATION(#215,#191,#163);
#167=APPROVAL_PERSON_ORGANIZATION(#218,#192,#164);
#168=COORDINATED_UNIVERSAL_TIME_OFFSET(5,0,.BEHIND.);
#169=LOCAL_TIME(0,0,0.,#168);
#170=LOCAL_TIME(0,0,0.,#168);
#171=LOCAL_TIME(0,0,0.,#168);
#172=LOCAL_TIME(0,0,0.,#168);
#173=LOCAL_TIME(0,0,0.,#168);
#174=CALENDAR_DATE(1999,1,1);
#175=CALENDAR_DATE(1999,1,1);
#176=CALENDAR_DATE(1999,1,1);
#177=CALENDAR_DATE(1999,1,1);
#178=CALENDAR_DATE(1999,1,1);
#179=DATE_AND_TIME(#174,#169);
#180=DATE_AND_TIME(#175,#170);
#181=DATE_AND_TIME(#176,#171);
#182=DATE_AND_TIME(#177,#172);
#183=DATE_AND_TIME(#178,#173);
#184=APPROVAL_DATE_TIME(#179,#190);
#185=APPROVAL_DATE_TIME(#180,#191);
#186=APPROVAL_DATE_TIME(#182,#192);
#187=APPROVAL_STATUS('not_yet_approved');
#188=APPROVAL_STATUS('not_yet_approved');
#189=APPROVAL_STATUS('approved');
#190=APPROVAL(#187,'Version approval');
#191=APPROVAL(#188,'Version Security approval');
#192=APPROVAL(#189,'Definition approval');
#193=APPLIED_APPROVAL_ASSIGNMENT(#190,(#196));
#194=APPLIED_APPROVAL_ASSIGNMENT(#191,(#160));
#195=APPLIED_APPROVAL_ASSIGNMENT(#192,(#154));
#196=PRODUCT_DEFINITION_FORMATION_WITH_SPECIFIED_SOURCE('A',
'First version',#228,.MADE.);
#197=PERSON_AND_ORGANIZATION_ROLE('design_owner');
#198=PERSON_AND_ORGANIZATION_ROLE('creator');
#199=PERSON_AND_ORGANIZATION_ROLE('design_supplier');
#200=PERSON_AND_ORGANIZATION_ROLE('classification_officer');
#201=PERSON_AND_ORGANIZATION_ROLE('creator');
#202=ORGANIZATION('STI','lab','lab');
#203=ORGANIZATION('STI','unknown','unknown');
#204=ORGANIZATION('STI','unknown','unknown');
#205=ORGANIZATION('STI','unknown','unknown');
#206=ORGANIZATION('STI','unknown','unknown');
#207=ORGANIZATION('STI','unknown','unknown');
#208=ORGANIZATION('STI','unknown','unknown');
#209=PERSON('1','Box','vc60',$,$,$);
#210=PERSON('2','last','first',$,$,$);
#211=PERSON('3','President','Mr.',$,$,$);
#212=PERSON_AND_ORGANIZATION(#209,#202);
#213=PERSON_AND_ORGANIZATION(#210,#203);
#214=PERSON_AND_ORGANIZATION(#211,#204);
#215=PERSON_AND_ORGANIZATION(#211,#205);
#216=PERSON_AND_ORGANIZATION(#211,#206);
#217=PERSON_AND_ORGANIZATION(#210,#207);
#218=PERSON_AND_ORGANIZATION(#211,#208);
#219=APPLIED_PERSON_AND_ORGANIZATION_ASSIGNMENT(#212,#197,(#228));
#220=APPLIED_PERSON_AND_ORGANIZATION_ASSIGNMENT(#213,#198,(#196));
#221=APPLIED_PERSON_AND_ORGANIZATION_ASSIGNMENT(#213,#199,(#196));
#222=APPLIED_PERSON_AND_ORGANIZATION_ASSIGNMENT(#216,#200,(#160));
#223=APPLIED_PERSON_AND_ORGANIZATION_ASSIGNMENT(#217,#201,(#154));
#224=PRODUCT_RELATED_PRODUCT_CATEGORY('detail','detail',(#228));
#225=APPLICATION_PROTOCOL_DEFINITION('International Standard',
'config_control_design',1994,#226);
#226=APPLICATION_CONTEXT(
'configuration controlled 3d designs of mechanical parts and assemblie
s');
#227=PRODUCT_CONTEXT('3D Mechanical Parts',#226,'mechanical');
#228=PRODUCT('Document','Document','',(#227));
#229=(
LENGTH_UNIT()
NAMED_UNIT(*)
SI_UNIT(.MILLI.,.METRE.)
);
#230=(
NAMED_UNIT(*)
PLANE_ANGLE_UNIT()
SI_UNIT($,.RADIAN.)
);
#231=DIMENSIONAL_EXPONENTS(0.,0.,0.,0.,0.,0.,0.);
#232=PLANE_ANGLE_MEASURE_WITH_UNIT(PLANE_ANGLE_MEASURE(0.01745329252),#230);
#233=(
CONVERSION_BASED_UNIT('DEGREES',#232)
NAMED_UNIT(#231)
PLANE_ANGLE_UNIT()
);
#234=(
NAMED_UNIT(*)
SI_UNIT($,.STERADIAN.)
SOLID_ANGLE_UNIT()
);
#235=UNCERTAINTY_MEASURE_WITH_UNIT(LENGTH_MEASURE(0.001),#229,
'DISTANCE_ACCURACY_VALUE',
'Maximum model space distance between geometric entities at asserted c
onnectivities');
#236=(
GEOMETRIC_REPRESENTATION_CONTEXT(3)
GLOBAL_UNCERTAINTY_ASSIGNED_CONTEXT((#235))
GLOBAL_UNIT_ASSIGNED_CONTEXT((#234,#233,#229))
REPRESENTATION_CONTEXT('ID1','3D')
);
#237=SHAPE_REPRESENTATION('Document',(#238,#247),#236);
#238=AXIS2_PLACEMENT_3D('',#260,#248,#249);
#239=AXIS2_PLACEMENT_3D('',#261,#250,$);
#240=AXIS2_PLACEMENT_3D('',#262,#251,$);
#241=AXIS2_PLACEMENT_3D('',#263,#252,$);
#242=AXIS2_PLACEMENT_3D('',#264,#253,$);
#243=AXIS2_PLACEMENT_3D('',#265,#254,$);
#244=AXIS2_PLACEMENT_3D('',#266,#255,$);
#245=AXIS2_PLACEMENT_3D('',#267,#256,$);
#246=AXIS2_PLACEMENT_3D('',#268,#257,$);
#247=AXIS2_PLACEMENT_3D('',#370,#258,#259);
#248=DIRECTION('',(0.,0.,1.));
#249=DIRECTION('',(1.,0.,0.));
#250=DIRECTION('',(-2.27085132645285E-18,-8.3266417192867E-16,-1.));
#251=DIRECTION('',(5.42999599042899E-17,8.82056788426076E-16,1.));
#252=DIRECTION('',(1.,0.,0.));
#253=DIRECTION('',(-1.,0.,0.));
#254=DIRECTION('',(-4.69319430863008E-19,-9.83762304106312E-16,-1.));
#255=DIRECTION('',(0.,0.,1.));
#256=DIRECTION('',(0.,0.,-1.));
#257=DIRECTION('',(0.,0.,-1.));
#258=DIRECTION('',(0.,0.,1.));
#259=DIRECTION('',(1.,0.,0.));
#260=CARTESIAN_POINT('',(0.,0.,0.));
#261=CARTESIAN_POINT('',(4.30740945498477E-11,-8.40717378657919,-5.92920649519271));
#262=CARTESIAN_POINT('',(4.30731006417773E-11,-8.40717378657919,-5.92920649519271));
#263=CARTESIAN_POINT('',(-7.5,-4.86818692622062,-0.297335391665973));
#264=CARTESIAN_POINT('',(7.5,1.86225337554138,-0.297335391665978));
#265=CARTESIAN_POINT('',(4.30737255981194E-11,-8.40717378657919,-2.35339111625906));
#266=CARTESIAN_POINT('',(-11.9672289575092,3.62550800417392,1.07079350480728));
#267=CARTESIAN_POINT('',(-11.9672289575092,3.62550800417392,-0.297335391665979));
#268=CARTESIAN_POINT('',(-11.9672289575092,3.62550800417391,-12.9292064951927));
#269=CARTESIAN_POINT('',(9.59996429936524,-8.43335491985951,1.07079350480729));
#270=CARTESIAN_POINT('',(9.59996429936524,-8.43335491985953,-12.9292064951927));
#271=CARTESIAN_POINT('',(8.55755479674199,-8.4305120486498,-12.9292064951927));
#272=CARTESIAN_POINT('',(-7.5,-2.41467848000166,-12.9292064951927));
#273=CARTESIAN_POINT('',(7.5,-2.41467847989384,-12.9292064951927));
#274=CARTESIAN_POINT('',(-7.50000000000001,-4.28621652250392,-12.9292064951927));
#275=CARTESIAN_POINT('',(7.5,-4.28621652234712,-12.9292064951927));
#276=CARTESIAN_POINT('',(-7.50000000000001,-2.41467848000165,-0.297335391665975));
#277=CARTESIAN_POINT('',(7.5,-2.41467847989383,-0.297335391665975));
#278=CARTESIAN_POINT('',(8.55755479674199,-8.43051204864979,-0.297335391665969));
#279=CARTESIAN_POINT('',(-7.5,-4.28621652250389,-0.297335391665975));
#280=CARTESIAN_POINT('',(7.5,-4.28621652234711,-0.297335391665973));
#281=CARTESIAN_POINT('',(3.61135292076655,-8.40889663984397,1.07079350480729));
#282=CARTESIAN_POINT('',(3.61135292076655,-8.40889663984397,-0.297335391665969));
#283=CARTESIAN_POINT('',(9.59996429936524,-8.43335491985951,1.07079350480729));
#284=CARTESIAN_POINT('',(9.57378316608491,-18.0333192191817,1.0707935048073));
#285=CARTESIAN_POINT('',(-0.0261811332372515,-18.0071380859014,1.0707935048073));
#286=CARTESIAN_POINT('',(-9.62614543255942,-17.980956952621,1.0707935048073));
#287=CARTESIAN_POINT('',(-9.59996429927909,-8.38099265329886,1.07079350480729));
#288=CARTESIAN_POINT('',(-9.57378316599877,1.2189716460233,1.07079350480729));
#289=CARTESIAN_POINT('',(0.0261811333233971,1.19279051274298,1.07079350480729));
#290=CARTESIAN_POINT('',(9.62614543264556,1.16660937946265,1.07079350480729));
#291=CARTESIAN_POINT('',(9.59996429936524,-8.43335491985951,1.07079350480729));
#292=CARTESIAN_POINT('',(9.59996429936524,-8.43335491985953,-12.9292064951927));
#293=CARTESIAN_POINT('',(9.57378316608491,-18.0333192191817,-12.9292064951927));
#294=CARTESIAN_POINT('',(-0.0261811332372512,-18.0071380859014,-12.9292064951927));
#295=CARTESIAN_POINT('',(-9.62614543255942,-17.980956952621,-12.9292064951927));
#296=CARTESIAN_POINT('',(-9.59996429927909,-8.38099265329888,-12.9292064951927));
#297=CARTESIAN_POINT('',(-9.59082949268951,-5.03148840525087,-12.9292064951927));
#298=CARTESIAN_POINT('',(-7.5,-2.41467848000166,-12.9292064951927));
#299=CARTESIAN_POINT('',(8.55755479674199,-8.4305120486498,-12.9292064951927));
#300=CARTESIAN_POINT('',(8.56357817055672,-6.22189208694583,-12.9292064951927));
#301=CARTESIAN_POINT('',(7.5,-4.28621652234712,-12.9292064951927));
#302=CARTESIAN_POINT('',(-7.50000000000001,-2.41467848000165,-0.297335391665975));
#303=CARTESIAN_POINT('',(-7.5,-2.41467848000166,-12.9292064951927));
#304=CARTESIAN_POINT('',(7.5,-2.41467847989384,-12.9292064951927));
#305=CARTESIAN_POINT('',(7.5,-2.41467847989383,-0.297335391665975));
#306=CARTESIAN_POINT('',(-7.50000000000001,-4.28621652250392,-12.9292064951927));
#307=CARTESIAN_POINT('',(-7.5,-4.28621652250389,-0.297335391665975));
#308=CARTESIAN_POINT('',(7.5,-4.28621652234711,-0.297335391665973));
#309=CARTESIAN_POINT('',(7.5,-4.28621652234712,-12.9292064951927));
#310=CARTESIAN_POINT('',(-7.5,-2.41467848000166,-12.9292064951927));
#311=CARTESIAN_POINT('',(-7.50000000000001,-4.28621652250392,-12.9292064951927));
#312=CARTESIAN_POINT('',(7.5,-4.28621652234712,-12.9292064951927));
#313=CARTESIAN_POINT('',(7.5,-2.41467847989384,-12.9292064951927));
#314=CARTESIAN_POINT('',(7.5,-2.41467847989385,-12.9292064951927));
#315=CARTESIAN_POINT('',(9.60917927591653,-5.05445435950702,-12.9292064951927));
#316=CARTESIAN_POINT('',(9.59996429936524,-8.43335491985953,-12.9292064951927));
#317=CARTESIAN_POINT('',(-7.50000000000001,-4.28621652250392,-12.9292064951927));
#318=CARTESIAN_POINT('',(-8.55159926311758,-6.2000908890698,-12.9292064951927));
#319=CARTESIAN_POINT('',(-8.55755479665583,-8.38383552450858,-12.9292064951927));
#320=CARTESIAN_POINT('',(-8.58089305872644,-16.9413903212075,-12.9292064951927));
#321=CARTESIAN_POINT('',(-0.0233382620275324,-16.9647285832781,-12.9292064951927));
#322=CARTESIAN_POINT('',(8.53421653467138,-16.9880668453487,-12.9292064951927));
#323=CARTESIAN_POINT('',(8.55755479674199,-8.4305120486498,-12.9292064951927));
#324=CARTESIAN_POINT('',(-7.5,-4.28621652250389,-0.297335391665975));
#325=CARTESIAN_POINT('',(-7.50000000000001,-2.41467848000165,-0.297335391665975));
#326=CARTESIAN_POINT('',(7.5,-2.41467847989383,-0.297335391665975));
#327=CARTESIAN_POINT('',(7.5,-4.28621652234711,-0.297335391665973));
#328=CARTESIAN_POINT('',(8.55755479674199,-8.43051204864979,-0.297335391665969));
#329=CARTESIAN_POINT('',(8.54613217956328,-12.6188990044898,-0.297335391665966));
#330=CARTESIAN_POINT('',(5.23154547003504,-15.1794127640805,-0.297335391665964));
#331=CARTESIAN_POINT('',(1.9169587605068,-17.7399265236711,-0.297335391665962));
#332=CARTESIAN_POINT('',(-2.13855135285699,-16.6932396132541,-0.297335391665962));
#333=CARTESIAN_POINT('',(-6.19406146622078,-15.6465527028372,-0.297335391665966));
#334=CARTESIAN_POINT('',(-7.85550593779651,-11.8017746811687,-0.297335391665968));
#335=CARTESIAN_POINT('',(-9.51695040937223,-7.9569966595003,-0.297335391665972));
#336=CARTESIAN_POINT('',(-7.5,-4.28621652250389,-0.297335391665975));
#337=CARTESIAN_POINT('',(7.5,-4.28621652234711,-0.297335391665973));
#338=CARTESIAN_POINT('',(8.56357817055672,-6.22189208694583,-0.297335391665976));
#339=CARTESIAN_POINT('',(8.55755479674199,-8.43051204864979,-0.297335391665969));
#340=CARTESIAN_POINT('',(-7.50000000000001,-2.41467848000165,-0.297335391665974));
#341=CARTESIAN_POINT('',(-4.60753747273919,1.20542764353079,-0.297335391665979));
#342=CARTESIAN_POINT('',(0.0261811333233971,1.19279051274298,-0.297335391665976));
#343=CARTESIAN_POINT('',(4.62766134315843,1.18024130288092,-0.297335391665976));
#344=CARTESIAN_POINT('',(7.5,-2.41467847989383,-0.297335391665975));
#345=CARTESIAN_POINT('',(8.55755479674199,-8.43051204864979,-0.297335391665969));
#346=CARTESIAN_POINT('',(8.55755479674199,-8.4305120486498,-12.9292064951927));
#347=CARTESIAN_POINT('',(9.59996429936524,-8.43335491985951,1.07079350480729));
#348=CARTESIAN_POINT('',(9.59996429936524,-8.43335491985951,-0.297335391665969));
#349=CARTESIAN_POINT('',(9.59996429936524,-8.43335491985953,-12.9292064951927));
#350=CARTESIAN_POINT('',(3.61135292076655,-8.40889663984397,1.07079350480729));
#351=CARTESIAN_POINT('',(3.61307577403133,-4.79754371912049,1.07079350480729));
#352=CARTESIAN_POINT('',(0.00172285330785529,-4.79582086585571,1.07079350480729));
#353=CARTESIAN_POINT('',(-3.60963006741562,-4.79409801259093,1.07079350480729));
#354=CARTESIAN_POINT('',(-3.6113529206804,-8.40545093331441,1.07079350480729));
#355=CARTESIAN_POINT('',(-3.61307577394519,-12.0168038540379,1.0707935048073));
#356=CARTESIAN_POINT('',(-0.00172285322170901,-12.0185267073027,1.0707935048073));
#357=CARTESIAN_POINT('',(3.60963006750177,-12.0202495605674,1.0707935048073));
#358=CARTESIAN_POINT('',(3.61135292076655,-8.40889663984397,1.07079350480729));
#359=CARTESIAN_POINT('',(3.61135292076655,-8.40889663984397,-0.297335391665969));
#360=CARTESIAN_POINT('',(3.61307577403133,-4.79754371912049,-0.297335391665971));
#361=CARTESIAN_POINT('',(0.00172285330785529,-4.79582086585571,-0.297335391665973));
#362=CARTESIAN_POINT('',(-3.60963006741562,-4.79409801259093,-0.297335391665971));
#363=CARTESIAN_POINT('',(-3.6113529206804,-8.40545093331441,-0.297335391665969));
#364=CARTESIAN_POINT('',(-3.61307577394519,-12.0168038540379,-0.297335391665966));
#365=CARTESIAN_POINT('',(-0.00172285322170901,-12.0185267073027,-0.297335391665966));
#366=CARTESIAN_POINT('',(3.60963006750177,-12.0202495605674,-0.297335391665966));
#367=CARTESIAN_POINT('',(3.61135292076655,-8.40889663984397,-0.297335391665969));
#368=CARTESIAN_POINT('',(3.61135292076655,-8.40889663984397,1.07079350480729));
#369=CARTESIAN_POINT('',(3.61135292076655,-8.40889663984397,-0.297335391665969));
#370=CARTESIAN_POINT('',(0.,0.,0.));
ENDSEC;
END-ISO-10303-21;
