ISO-10303-21;
HEADER;
/* Generated by software containing ST-Developer
 * from STEP Tools, Inc. (www.steptools.com) 
 */

FILE_DESCRIPTION(
/* description */ (''),
/* implementation_level */ '2;1');

FILE_NAME(
/* name */ 'BallBox.step',
/* time_stamp */ '2023-02-26T16:20:46-06:00',
/* author */ (''),
/* organization */ (''),
/* preprocessor_version */ 'ST-DEVELOPER v19.2',
/* originating_system */ 'Autodesk Translation Framework v11.17.0.187',

/* authorisation */ '');

FILE_SCHEMA (('AUTOMOTIVE_DESIGN { 1 0 10303 214 3 1 1 }'));
ENDSEC;

DATA;
#10=MECHANICAL_DESIGN_GEOMETRIC_PRESENTATION_REPRESENTATION('',(#13),#479);
#11=SHAPE_REPRESENTATION_RELATIONSHIP('SRR','None',#486,#12);
#12=ADVANCED_BREP_SHAPE_REPRESENTATION('',(#14),#478);
#13=STYLED_ITEM('',(#495),#14);
#14=MANIFOLD_SOLID_BREP('Body1',#273);
#15=FACE_BOUND('',#88,.T.);
#16=FACE_BOUND('',#89,.T.);
#17=FACE_BOUND('',#90,.T.);
#18=FACE_BOUND('',#92,.T.);
#19=FACE_BOUND('',#94,.T.);
#20=FACE_BOUND('',#96,.T.);
#21=FACE_BOUND('',#98,.T.);
#22=FACE_BOUND('',#100,.T.);
#23=FACE_BOUND('',#102,.T.);
#24=LINE('',#416,#42);
#25=LINE('',#419,#43);
#26=LINE('',#422,#44);
#27=LINE('',#423,#45);
#28=LINE('',#426,#46);
#29=LINE('',#429,#47);
#30=LINE('',#453,#48);
#31=LINE('',#455,#49);
#32=LINE('',#457,#50);
#33=LINE('',#458,#51);
#34=LINE('',#462,#52);
#35=LINE('',#464,#53);
#36=LINE('',#466,#54);
#37=LINE('',#467,#55);
#38=LINE('',#469,#56);
#39=LINE('',#470,#57);
#40=LINE('',#472,#58);
#41=LINE('',#474,#59);
#42=VECTOR('',#336,10.);
#43=VECTOR('',#339,10.);
#44=VECTOR('',#342,10.);
#45=VECTOR('',#343,10.);
#46=VECTOR('',#346,10.);
#47=VECTOR('',#349,10.);
#48=VECTOR('',#378,10.);
#49=VECTOR('',#379,10.);
#50=VECTOR('',#380,10.);
#51=VECTOR('',#381,10.);
#52=VECTOR('',#384,10.);
#53=VECTOR('',#385,10.);
#54=VECTOR('',#386,10.);
#55=VECTOR('',#387,10.);
#56=VECTOR('',#390,10.);
#57=VECTOR('',#391,10.);
#58=VECTOR('',#394,10.);
#59=VECTOR('',#397,10.);
#60=PLANE('',#294);
#61=PLANE('',#296);
#62=PLANE('',#297);
#63=PLANE('',#299);
#64=PLANE('',#312);
#65=PLANE('',#313);
#66=PLANE('',#314);
#67=PLANE('',#315);
#68=PLANE('',#316);
#69=PLANE('',#317);
#70=FACE_OUTER_BOUND('',#82,.T.);
#71=FACE_OUTER_BOUND('',#83,.T.);
#72=FACE_OUTER_BOUND('',#84,.T.);
#73=FACE_OUTER_BOUND('',#85,.T.);
#74=FACE_OUTER_BOUND('',#86,.T.);
#75=FACE_OUTER_BOUND('',#87,.T.);
#76=FACE_OUTER_BOUND('',#91,.T.);
#77=FACE_OUTER_BOUND('',#93,.T.);
#78=FACE_OUTER_BOUND('',#95,.T.);
#79=FACE_OUTER_BOUND('',#97,.T.);
#80=FACE_OUTER_BOUND('',#99,.T.);
#81=FACE_OUTER_BOUND('',#101,.T.);
#82=EDGE_LOOP('',(#185,#186,#187,#188,#189,#190,#191));
#83=EDGE_LOOP('',(#192,#193,#194,#195));
#84=EDGE_LOOP('',(#196,#197,#198,#199));
#85=EDGE_LOOP('',(#200,#201,#202,#203,#204));
#86=EDGE_LOOP('',(#205,#206,#207,#208));
#87=EDGE_LOOP('',(#209,#210,#211,#212,#213,#214,#215,#216,#217,#218,#219,
#220));
#88=EDGE_LOOP('',(#221));
#89=EDGE_LOOP('',(#222));
#90=EDGE_LOOP('',(#223));
#91=EDGE_LOOP('',(#224,#225,#226,#227));
#92=EDGE_LOOP('',(#228));
#93=EDGE_LOOP('',(#229,#230,#231,#232));
#94=EDGE_LOOP('',(#233,#234,#235,#236,#237));
#95=EDGE_LOOP('',(#238,#239,#240,#241));
#96=EDGE_LOOP('',(#242));
#97=EDGE_LOOP('',(#243,#244,#245,#246));
#98=EDGE_LOOP('',(#247));
#99=EDGE_LOOP('',(#248,#249,#250,#251));
#100=EDGE_LOOP('',(#252,#253));
#101=EDGE_LOOP('',(#254,#255,#256,#257));
#102=EDGE_LOOP('',(#258));
#103=CIRCLE('',#288,13.9996435626203);
#104=CIRCLE('',#289,13.9999999802152);
#105=CIRCLE('',#290,14.);
#106=CIRCLE('',#291,13.9999999802152);
#107=CIRCLE('',#292,13.9999999996468);
#108=CIRCLE('',#293,1.67032930884903);
#109=CIRCLE('',#295,15.9999999996909);
#110=CIRCLE('',#298,15.9996881182233);
#111=CIRCLE('',#300,10.1113797278116);
#112=CIRCLE('',#302,9.98749217771909);
#113=CIRCLE('',#303,16.);
#114=CIRCLE('',#304,9.98749217771909);
#115=CIRCLE('',#305,16.);
#116=CIRCLE('',#306,9.98749217771909);
#117=CIRCLE('',#307,9.98749217771909);
#118=CIRCLE('',#308,9.98749217771909);
#119=CIRCLE('',#309,9.98749217771909);
#120=CIRCLE('',#310,9.98749217771909);
#121=CIRCLE('',#311,9.98749217771909);
#122=VERTEX_POINT('',#402);
#123=VERTEX_POINT('',#403);
#124=VERTEX_POINT('',#405);
#125=VERTEX_POINT('',#407);
#126=VERTEX_POINT('',#409);
#127=VERTEX_POINT('',#411);
#128=VERTEX_POINT('',#415);
#129=VERTEX_POINT('',#417);
#130=VERTEX_POINT('',#421);
#131=VERTEX_POINT('',#425);
#132=VERTEX_POINT('',#427);
#133=VERTEX_POINT('',#433);
#134=VERTEX_POINT('',#435);
#135=VERTEX_POINT('',#437);
#136=VERTEX_POINT('',#439);
#137=VERTEX_POINT('',#444);
#138=VERTEX_POINT('',#446);
#139=VERTEX_POINT('',#448);
#140=VERTEX_POINT('',#451);
#141=VERTEX_POINT('',#452);
#142=VERTEX_POINT('',#454);
#143=VERTEX_POINT('',#456);
#144=VERTEX_POINT('',#460);
#145=VERTEX_POINT('',#461);
#146=VERTEX_POINT('',#463);
#147=VERTEX_POINT('',#465);
#148=EDGE_CURVE('',#122,#123,#103,.T.);
#149=EDGE_CURVE('',#124,#122,#104,.T.);
#150=EDGE_CURVE('',#125,#124,#105,.T.);
#151=EDGE_CURVE('',#126,#124,#106,.T.);
#152=EDGE_CURVE('',#127,#126,#107,.T.);
#153=EDGE_CURVE('',#123,#127,#108,.T.);
#154=EDGE_CURVE('',#128,#126,#24,.T.);
#155=EDGE_CURVE('',#129,#128,#109,.T.);
#156=EDGE_CURVE('',#127,#129,#25,.T.);
#157=EDGE_CURVE('',#122,#130,#26,.T.);
#158=EDGE_CURVE('',#126,#130,#27,.T.);
#159=EDGE_CURVE('',#131,#123,#28,.T.);
#160=EDGE_CURVE('',#132,#131,#110,.T.);
#161=EDGE_CURVE('',#130,#132,#29,.T.);
#162=EDGE_CURVE('',#131,#129,#111,.T.);
#163=EDGE_CURVE('',#133,#128,#112,.T.);
#164=EDGE_CURVE('',#133,#134,#113,.T.);
#165=EDGE_CURVE('',#135,#134,#114,.T.);
#166=EDGE_CURVE('',#135,#136,#115,.T.);
#167=EDGE_CURVE('',#136,#136,#116,.T.);
#168=EDGE_CURVE('',#134,#135,#117,.T.);
#169=EDGE_CURVE('',#132,#133,#118,.T.);
#170=EDGE_CURVE('',#137,#137,#119,.T.);
#171=EDGE_CURVE('',#138,#138,#120,.T.);
#172=EDGE_CURVE('',#139,#139,#121,.T.);
#173=EDGE_CURVE('',#140,#141,#30,.T.);
#174=EDGE_CURVE('',#141,#142,#31,.T.);
#175=EDGE_CURVE('',#142,#143,#32,.T.);
#176=EDGE_CURVE('',#143,#140,#33,.T.);
#177=EDGE_CURVE('',#144,#145,#34,.T.);
#178=EDGE_CURVE('',#145,#146,#35,.T.);
#179=EDGE_CURVE('',#146,#147,#36,.T.);
#180=EDGE_CURVE('',#147,#144,#37,.T.);
#181=EDGE_CURVE('',#143,#146,#38,.T.);
#182=EDGE_CURVE('',#140,#145,#39,.T.);
#183=EDGE_CURVE('',#142,#147,#40,.T.);
#184=EDGE_CURVE('',#141,#144,#41,.T.);
#185=ORIENTED_EDGE('',*,*,#148,.F.);
#186=ORIENTED_EDGE('',*,*,#149,.F.);
#187=ORIENTED_EDGE('',*,*,#150,.F.);
#188=ORIENTED_EDGE('',*,*,#150,.T.);
#189=ORIENTED_EDGE('',*,*,#151,.F.);
#190=ORIENTED_EDGE('',*,*,#152,.F.);
#191=ORIENTED_EDGE('',*,*,#153,.F.);
#192=ORIENTED_EDGE('',*,*,#152,.T.);
#193=ORIENTED_EDGE('',*,*,#154,.F.);
#194=ORIENTED_EDGE('',*,*,#155,.F.);
#195=ORIENTED_EDGE('',*,*,#156,.F.);
#196=ORIENTED_EDGE('',*,*,#151,.T.);
#197=ORIENTED_EDGE('',*,*,#149,.T.);
#198=ORIENTED_EDGE('',*,*,#157,.T.);
#199=ORIENTED_EDGE('',*,*,#158,.F.);
#200=ORIENTED_EDGE('',*,*,#148,.T.);
#201=ORIENTED_EDGE('',*,*,#159,.F.);
#202=ORIENTED_EDGE('',*,*,#160,.F.);
#203=ORIENTED_EDGE('',*,*,#161,.F.);
#204=ORIENTED_EDGE('',*,*,#157,.F.);
#205=ORIENTED_EDGE('',*,*,#153,.T.);
#206=ORIENTED_EDGE('',*,*,#156,.T.);
#207=ORIENTED_EDGE('',*,*,#162,.F.);
#208=ORIENTED_EDGE('',*,*,#159,.T.);
#209=ORIENTED_EDGE('',*,*,#160,.T.);
#210=ORIENTED_EDGE('',*,*,#162,.T.);
#211=ORIENTED_EDGE('',*,*,#155,.T.);
#212=ORIENTED_EDGE('',*,*,#163,.F.);
#213=ORIENTED_EDGE('',*,*,#164,.T.);
#214=ORIENTED_EDGE('',*,*,#165,.F.);
#215=ORIENTED_EDGE('',*,*,#166,.T.);
#216=ORIENTED_EDGE('',*,*,#167,.F.);
#217=ORIENTED_EDGE('',*,*,#166,.F.);
#218=ORIENTED_EDGE('',*,*,#168,.F.);
#219=ORIENTED_EDGE('',*,*,#164,.F.);
#220=ORIENTED_EDGE('',*,*,#169,.F.);
#221=ORIENTED_EDGE('',*,*,#170,.F.);
#222=ORIENTED_EDGE('',*,*,#171,.F.);
#223=ORIENTED_EDGE('',*,*,#172,.F.);
#224=ORIENTED_EDGE('',*,*,#173,.T.);
#225=ORIENTED_EDGE('',*,*,#174,.T.);
#226=ORIENTED_EDGE('',*,*,#175,.T.);
#227=ORIENTED_EDGE('',*,*,#176,.T.);
#228=ORIENTED_EDGE('',*,*,#167,.T.);
#229=ORIENTED_EDGE('',*,*,#177,.T.);
#230=ORIENTED_EDGE('',*,*,#178,.T.);
#231=ORIENTED_EDGE('',*,*,#179,.T.);
#232=ORIENTED_EDGE('',*,*,#180,.T.);
#233=ORIENTED_EDGE('',*,*,#169,.T.);
#234=ORIENTED_EDGE('',*,*,#163,.T.);
#235=ORIENTED_EDGE('',*,*,#154,.T.);
#236=ORIENTED_EDGE('',*,*,#158,.T.);
#237=ORIENTED_EDGE('',*,*,#161,.T.);
#238=ORIENTED_EDGE('',*,*,#181,.T.);
#239=ORIENTED_EDGE('',*,*,#178,.F.);
#240=ORIENTED_EDGE('',*,*,#182,.F.);
#241=ORIENTED_EDGE('',*,*,#176,.F.);
#242=ORIENTED_EDGE('',*,*,#172,.T.);
#243=ORIENTED_EDGE('',*,*,#183,.T.);
#244=ORIENTED_EDGE('',*,*,#179,.F.);
#245=ORIENTED_EDGE('',*,*,#181,.F.);
#246=ORIENTED_EDGE('',*,*,#175,.F.);
#247=ORIENTED_EDGE('',*,*,#171,.T.);
#248=ORIENTED_EDGE('',*,*,#184,.T.);
#249=ORIENTED_EDGE('',*,*,#180,.F.);
#250=ORIENTED_EDGE('',*,*,#183,.F.);
#251=ORIENTED_EDGE('',*,*,#174,.F.);
#252=ORIENTED_EDGE('',*,*,#165,.T.);
#253=ORIENTED_EDGE('',*,*,#168,.T.);
#254=ORIENTED_EDGE('',*,*,#182,.T.);
#255=ORIENTED_EDGE('',*,*,#177,.F.);
#256=ORIENTED_EDGE('',*,*,#184,.F.);
#257=ORIENTED_EDGE('',*,*,#173,.F.);
#258=ORIENTED_EDGE('',*,*,#170,.T.);
#259=SPHERICAL_SURFACE('',#287,14.);
#260=SPHERICAL_SURFACE('',#301,16.);
#261=ADVANCED_FACE('',(#70),#259,.T.);
#262=ADVANCED_FACE('',(#71),#60,.F.);
#263=ADVANCED_FACE('',(#72),#61,.F.);
#264=ADVANCED_FACE('',(#73),#62,.F.);
#265=ADVANCED_FACE('',(#74),#63,.T.);
#266=ADVANCED_FACE('',(#75,#15,#16,#17),#260,.F.);
#267=ADVANCED_FACE('',(#76,#18),#64,.T.);
#268=ADVANCED_FACE('',(#77,#19),#65,.F.);
#269=ADVANCED_FACE('',(#78,#20),#66,.F.);
#270=ADVANCED_FACE('',(#79,#21),#67,.F.);
#271=ADVANCED_FACE('',(#80,#22),#68,.F.);
#272=ADVANCED_FACE('',(#81,#23),#69,.F.);
#273=CLOSED_SHELL('',(#261,#262,#263,#264,#265,#266,#267,#268,#269,#270,
#271,#272));
#274=DERIVED_UNIT_ELEMENT(#276,1.);
#275=DERIVED_UNIT_ELEMENT(#481,-3.);
#276=(
MASS_UNIT()
NAMED_UNIT(*)
SI_UNIT(.KILO.,.GRAM.)
);
#277=DERIVED_UNIT((#274,#275));
#278=MEASURE_REPRESENTATION_ITEM('density measure',
POSITIVE_RATIO_MEASURE(7850.),#277);
#279=PROPERTY_DEFINITION_REPRESENTATION(#284,#281);
#280=PROPERTY_DEFINITION_REPRESENTATION(#285,#282);
#281=REPRESENTATION('material name',(#283),#478);
#282=REPRESENTATION('density',(#278),#478);
#283=DESCRIPTIVE_REPRESENTATION_ITEM('Steel','Steel');
#284=PROPERTY_DEFINITION('material property','material name',#488);
#285=PROPERTY_DEFINITION('material property','density of part',#488);
#286=AXIS2_PLACEMENT_3D('placement',#400,#318,#319);
#287=AXIS2_PLACEMENT_3D('',#401,#320,#321);
#288=AXIS2_PLACEMENT_3D('',#404,#322,#323);
#289=AXIS2_PLACEMENT_3D('',#406,#324,#325);
#290=AXIS2_PLACEMENT_3D('',#408,#326,#327);
#291=AXIS2_PLACEMENT_3D('',#410,#328,#329);
#292=AXIS2_PLACEMENT_3D('',#412,#330,#331);
#293=AXIS2_PLACEMENT_3D('',#413,#332,#333);
#294=AXIS2_PLACEMENT_3D('',#414,#334,#335);
#295=AXIS2_PLACEMENT_3D('',#418,#337,#338);
#296=AXIS2_PLACEMENT_3D('',#420,#340,#341);
#297=AXIS2_PLACEMENT_3D('',#424,#344,#345);
#298=AXIS2_PLACEMENT_3D('',#428,#347,#348);
#299=AXIS2_PLACEMENT_3D('',#430,#350,#351);
#300=AXIS2_PLACEMENT_3D('',#431,#352,#353);
#301=AXIS2_PLACEMENT_3D('',#432,#354,#355);
#302=AXIS2_PLACEMENT_3D('',#434,#356,#357);
#303=AXIS2_PLACEMENT_3D('',#436,#358,#359);
#304=AXIS2_PLACEMENT_3D('',#438,#360,#361);
#305=AXIS2_PLACEMENT_3D('',#440,#362,#363);
#306=AXIS2_PLACEMENT_3D('',#441,#364,#365);
#307=AXIS2_PLACEMENT_3D('',#442,#366,#367);
#308=AXIS2_PLACEMENT_3D('',#443,#368,#369);
#309=AXIS2_PLACEMENT_3D('',#445,#370,#371);
#310=AXIS2_PLACEMENT_3D('',#447,#372,#373);
#311=AXIS2_PLACEMENT_3D('',#449,#374,#375);
#312=AXIS2_PLACEMENT_3D('',#450,#376,#377);
#313=AXIS2_PLACEMENT_3D('',#459,#382,#383);
#314=AXIS2_PLACEMENT_3D('',#468,#388,#389);
#315=AXIS2_PLACEMENT_3D('',#471,#392,#393);
#316=AXIS2_PLACEMENT_3D('',#473,#395,#396);
#317=AXIS2_PLACEMENT_3D('',#475,#398,#399);
#318=DIRECTION('axis',(0.,0.,1.));
#319=DIRECTION('refdir',(1.,0.,0.));
#320=DIRECTION('center_axis',(0.,0.,1.));
#321=DIRECTION('ref_axis',(1.,0.,0.));
#322=DIRECTION('center_axis',(0.,-1.,0.));
#323=DIRECTION('ref_axis',(0.,0.,-1.));
#324=DIRECTION('center_axis',(1.,0.,0.));
#325=DIRECTION('ref_axis',(0.,0.,-1.));
#326=DIRECTION('center_axis',(1.58603289232165E-16,-1.,0.));
#327=DIRECTION('ref_axis',(-1.,-1.58603289232165E-16,0.));
#328=DIRECTION('center_axis',(1.,0.,0.));
#329=DIRECTION('ref_axis',(0.,0.,-1.));
#330=DIRECTION('center_axis',(0.,1.,0.));
#331=DIRECTION('ref_axis',(0.,0.,1.));
#332=DIRECTION('center_axis',(0.,0.,-1.));
#333=DIRECTION('ref_axis',(0.,1.,0.));
#334=DIRECTION('center_axis',(0.,1.,0.));
#335=DIRECTION('ref_axis',(0.,0.,-1.));
#336=DIRECTION('',(-1.,0.,0.));
#337=DIRECTION('center_axis',(0.,1.,0.));
#338=DIRECTION('ref_axis',(0.,0.,1.));
#339=DIRECTION('',(1.,0.,0.));
#340=DIRECTION('center_axis',(1.,0.,0.));
#341=DIRECTION('ref_axis',(0.,0.,-1.));
#342=DIRECTION('',(0.,0.,-1.));
#343=DIRECTION('',(0.,1.,0.));
#344=DIRECTION('center_axis',(0.,-1.,0.));
#345=DIRECTION('ref_axis',(0.,0.,1.));
#346=DIRECTION('',(-1.,0.,0.));
#347=DIRECTION('center_axis',(0.,-1.,0.));
#348=DIRECTION('ref_axis',(0.,0.,-1.));
#349=DIRECTION('',(1.,0.,0.));
#350=DIRECTION('center_axis',(0.,0.,1.));
#351=DIRECTION('ref_axis',(0.,1.,0.));
#352=DIRECTION('center_axis',(0.,0.,-1.));
#353=DIRECTION('ref_axis',(0.,1.,0.));
#354=DIRECTION('center_axis',(1.11022302462516E-16,0.,1.));
#355=DIRECTION('ref_axis',(1.,0.,0.));
#356=DIRECTION('center_axis',(0.,0.,1.));
#357=DIRECTION('ref_axis',(0.,-1.,0.));
#358=DIRECTION('center_axis',(-1.38777878078145E-16,1.,0.));
#359=DIRECTION('ref_axis',(-1.,-1.38777878078145E-16,0.));
#360=DIRECTION('center_axis',(1.,0.,0.));
#361=DIRECTION('ref_axis',(0.,0.,-1.));
#362=DIRECTION('center_axis',(-1.38777878078145E-16,1.,0.));
#363=DIRECTION('ref_axis',(-1.,-1.38777878078145E-16,0.));
#364=DIRECTION('center_axis',(0.,0.,-1.));
#365=DIRECTION('ref_axis',(0.,1.,0.));
#366=DIRECTION('center_axis',(1.,0.,0.));
#367=DIRECTION('ref_axis',(0.,0.,-1.));
#368=DIRECTION('center_axis',(0.,0.,1.));
#369=DIRECTION('ref_axis',(0.,-1.,0.));
#370=DIRECTION('center_axis',(0.,-1.,0.));
#371=DIRECTION('ref_axis',(0.,0.,-1.));
#372=DIRECTION('center_axis',(0.,1.,0.));
#373=DIRECTION('ref_axis',(0.,0.,1.));
#374=DIRECTION('center_axis',(-1.,0.,0.));
#375=DIRECTION('ref_axis',(0.,0.,1.));
#376=DIRECTION('center_axis',(0.,0.,1.));
#377=DIRECTION('ref_axis',(0.,1.,0.));
#378=DIRECTION('',(-1.,0.,0.));
#379=DIRECTION('',(0.,-1.,0.));
#380=DIRECTION('',(1.,0.,0.));
#381=DIRECTION('',(0.,1.,0.));
#382=DIRECTION('center_axis',(0.,0.,1.));
#383=DIRECTION('ref_axis',(0.,1.,0.));
#384=DIRECTION('',(1.,0.,0.));
#385=DIRECTION('',(0.,-1.,0.));
#386=DIRECTION('',(-1.,0.,0.));
#387=DIRECTION('',(0.,1.,0.));
#388=DIRECTION('center_axis',(-1.,0.,0.));
#389=DIRECTION('ref_axis',(0.,0.,1.));
#390=DIRECTION('',(0.,0.,-1.));
#391=DIRECTION('',(0.,0.,-1.));
#392=DIRECTION('center_axis',(0.,1.,0.));
#393=DIRECTION('ref_axis',(0.,0.,-1.));
#394=DIRECTION('',(0.,0.,-1.));
#395=DIRECTION('center_axis',(1.,0.,0.));
#396=DIRECTION('ref_axis',(0.,0.,-1.));
#397=DIRECTION('',(0.,0.,-1.));
#398=DIRECTION('center_axis',(0.,-1.,0.));
#399=DIRECTION('ref_axis',(0.,0.,1.));
#400=CARTESIAN_POINT('',(0.,0.,0.));
#401=CARTESIAN_POINT('Origin',(-12.5,12.5,14.));
#402=CARTESIAN_POINT('',(-12.5007442954279,12.5999005484652,0.000356457165033852));
#403=CARTESIAN_POINT('',(-10.8326608382166,12.5999005484652,0.1));
#404=CARTESIAN_POINT('Origin',(-12.5,12.5999005484652,14.));
#405=CARTESIAN_POINT('',(-12.5007442954279,12.5,1.97848426530811E-8));
#406=CARTESIAN_POINT('Origin',(-12.5007442954279,12.5,14.));
#407=CARTESIAN_POINT('',(-12.5,12.5,28.));
#408=CARTESIAN_POINT('Origin',(-12.5,12.5,14.));
#409=CARTESIAN_POINT('',(-12.5007442954279,12.4999005484652,0.));
#410=CARTESIAN_POINT('Origin',(-12.5007442954279,12.5,14.));
#411=CARTESIAN_POINT('',(-10.8296706941117,12.4999005484652,0.1));
#412=CARTESIAN_POINT('Origin',(-12.5,12.4999005484652,14.));
#413=CARTESIAN_POINT('Origin',(-12.5,12.5,0.1));
#414=CARTESIAN_POINT('Origin',(-6.25074429542789,12.4999005484652,0.05));
#415=CARTESIAN_POINT('',(-2.51250782277606,12.4999005484652,0.));
#416=CARTESIAN_POINT('',(-6.25074429542789,12.4999005484652,0.));
#417=CARTESIAN_POINT('',(-2.38862027267745,12.4999005484652,0.1));
#418=CARTESIAN_POINT('Origin',(-12.5,12.4999005484652,12.5));
#419=CARTESIAN_POINT('',(-6.25074429542789,12.4999005484652,0.1));
#420=CARTESIAN_POINT('Origin',(-12.5007442954279,12.5499005484652,0.05));
#421=CARTESIAN_POINT('',(-12.5007442954279,12.5999005484652,0.));
#422=CARTESIAN_POINT('',(-12.5007442954279,12.5999005484652,0.05));
#423=CARTESIAN_POINT('',(-12.5007442954279,12.5499005484652,0.));
#424=CARTESIAN_POINT('Origin',(-6.25074429542789,12.5999005484652,0.05));
#425=CARTESIAN_POINT('',(-2.38911379351857,12.5999005484652,0.1));
#426=CARTESIAN_POINT('',(-6.25074429542789,12.5999005484652,0.1));
#427=CARTESIAN_POINT('',(-2.51300746568736,12.5999005484652,0.));
#428=CARTESIAN_POINT('Origin',(-12.5,12.5999005484652,12.5));
#429=CARTESIAN_POINT('',(-6.25074429542789,12.5999005484652,0.));
#430=CARTESIAN_POINT('Origin',(-6.25074429542789,12.5499005484652,0.1));
#431=CARTESIAN_POINT('Origin',(-12.5,12.5,0.1));
#432=CARTESIAN_POINT('Origin',(-12.5,12.5,12.5));
#433=CARTESIAN_POINT('',(-22.4874921777191,12.5,0.));
#434=CARTESIAN_POINT('Origin',(-12.5,12.5,0.));
#435=CARTESIAN_POINT('',(-25.,12.5,2.51250782228091));
#436=CARTESIAN_POINT('Origin',(-12.5,12.5,12.5));
#437=CARTESIAN_POINT('',(-25.,12.5,22.4874921777191));
#438=CARTESIAN_POINT('Origin',(-25.,12.5,12.5));
#439=CARTESIAN_POINT('',(-22.4874921777191,12.5,25.));
#440=CARTESIAN_POINT('Origin',(-12.5,12.5,12.5));
#441=CARTESIAN_POINT('Origin',(-12.5,12.5,25.));
#442=CARTESIAN_POINT('Origin',(-25.,12.5,12.5));
#443=CARTESIAN_POINT('Origin',(-12.5,12.5,0.));
#444=CARTESIAN_POINT('',(-12.5,25.,22.4874921777191));
#445=CARTESIAN_POINT('Origin',(-12.5,25.,12.5));
#446=CARTESIAN_POINT('',(-12.5,0.,2.51250782228091));
#447=CARTESIAN_POINT('Origin',(-12.5,0.,12.5));
#448=CARTESIAN_POINT('',(0.,12.5,2.51250782228091));
#449=CARTESIAN_POINT('Origin',(0.,12.5,12.5));
#450=CARTESIAN_POINT('Origin',(-12.5,12.5,25.));
#451=CARTESIAN_POINT('',(0.,25.,25.));
#452=CARTESIAN_POINT('',(-25.,25.,25.));
#453=CARTESIAN_POINT('',(-12.5,25.,25.));
#454=CARTESIAN_POINT('',(-25.,0.,25.));
#455=CARTESIAN_POINT('',(-25.,12.5,25.));
#456=CARTESIAN_POINT('',(0.,0.,25.));
#457=CARTESIAN_POINT('',(-12.5,0.,25.));
#458=CARTESIAN_POINT('',(0.,12.5,25.));
#459=CARTESIAN_POINT('Origin',(-12.5,12.5,0.));
#460=CARTESIAN_POINT('',(-25.,25.,0.));
#461=CARTESIAN_POINT('',(0.,25.,0.));
#462=CARTESIAN_POINT('',(-12.5,25.,0.));
#463=CARTESIAN_POINT('',(0.,0.,0.));
#464=CARTESIAN_POINT('',(0.,12.5,0.));
#465=CARTESIAN_POINT('',(-25.,0.,0.));
#466=CARTESIAN_POINT('',(-12.5,0.,0.));
#467=CARTESIAN_POINT('',(-25.,12.5,0.));
#468=CARTESIAN_POINT('Origin',(0.,12.5,12.5));
#469=CARTESIAN_POINT('',(0.,0.,12.5));
#470=CARTESIAN_POINT('',(0.,25.,12.5));
#471=CARTESIAN_POINT('Origin',(-12.5,0.,12.5));
#472=CARTESIAN_POINT('',(-25.,0.,12.5));
#473=CARTESIAN_POINT('Origin',(-25.,12.5,12.5));
#474=CARTESIAN_POINT('',(-25.,25.,12.5));
#475=CARTESIAN_POINT('Origin',(-12.5,25.,12.5));
#476=UNCERTAINTY_MEASURE_WITH_UNIT(LENGTH_MEASURE(0.01),#480,
'DISTANCE_ACCURACY_VALUE',
'Maximum model space distance between geometric entities at asserted c
onnectivities');
#477=UNCERTAINTY_MEASURE_WITH_UNIT(LENGTH_MEASURE(0.01),#480,
'DISTANCE_ACCURACY_VALUE',
'Maximum model space distance between geometric entities at asserted c
onnectivities');
#478=(
GEOMETRIC_REPRESENTATION_CONTEXT(3)
GLOBAL_UNCERTAINTY_ASSIGNED_CONTEXT((#476))
GLOBAL_UNIT_ASSIGNED_CONTEXT((#480,#482,#483))
REPRESENTATION_CONTEXT('','3D')
);
#479=(
GEOMETRIC_REPRESENTATION_CONTEXT(3)
GLOBAL_UNCERTAINTY_ASSIGNED_CONTEXT((#477))
GLOBAL_UNIT_ASSIGNED_CONTEXT((#480,#482,#483))
REPRESENTATION_CONTEXT('','3D')
);
#480=(
LENGTH_UNIT()
NAMED_UNIT(*)
SI_UNIT(.MILLI.,.METRE.)
);
#481=(
LENGTH_UNIT()
NAMED_UNIT(*)
SI_UNIT($,.METRE.)
);
#482=(
NAMED_UNIT(*)
PLANE_ANGLE_UNIT()
SI_UNIT($,.RADIAN.)
);
#483=(
NAMED_UNIT(*)
SI_UNIT($,.STERADIAN.)
SOLID_ANGLE_UNIT()
);
#484=SHAPE_DEFINITION_REPRESENTATION(#485,#486);
#485=PRODUCT_DEFINITION_SHAPE('',$,#488);
#486=SHAPE_REPRESENTATION('',(#286),#478);
#487=PRODUCT_DEFINITION_CONTEXT('part definition',#492,'design');
#488=PRODUCT_DEFINITION('BallBox','BallBox',#489,#487);
#489=PRODUCT_DEFINITION_FORMATION('',$,#494);
#490=PRODUCT_RELATED_PRODUCT_CATEGORY('BallBox','BallBox',(#494));
#491=APPLICATION_PROTOCOL_DEFINITION('international standard',
'automotive_design',2009,#492);
#492=APPLICATION_CONTEXT(
'Core Data for Automotive Mechanical Design Process');
#493=PRODUCT_CONTEXT('part definition',#492,'mechanical');
#494=PRODUCT('BallBox','BallBox',$,(#493));
#495=PRESENTATION_STYLE_ASSIGNMENT((#496));
#496=SURFACE_STYLE_USAGE(.BOTH.,#497);
#497=SURFACE_SIDE_STYLE('',(#498));
#498=SURFACE_STYLE_FILL_AREA(#499);
#499=FILL_AREA_STYLE('Steel - Satin',(#500));
#500=FILL_AREA_STYLE_COLOUR('Steel - Satin',#501);
#501=COLOUR_RGB('Steel - Satin',0.627450980392157,0.627450980392157,0.627450980392157);
ENDSEC;
END-ISO-10303-21;
