ISO-10303-21;
HEADER;
/* Generated by software containing ST-Developer
 * from STEP Tools, Inc. (www.steptools.com) 
 */
/* OPTION: using custom renumber hook */

FILE_DESCRIPTION(
/* description */ (''),
/* implementation_level */ '2;1');

FILE_NAME(
/* name */ '5fbbe16a4270a91288fdf3c4',
/* time_stamp */ '2020-11-23T16:20:59+00:00',
/* author */ (''),
/* organization */ (''),
/* preprocessor_version */ 'ST-DEVELOPER v16.7',
/* originating_system */ $,
/* authorisation */ $);

FILE_SCHEMA (('AUTOMOTIVE_DESIGN {1 0 10303 214 3 1 1}'));
ENDSEC;

DATA;
#10=PROPERTY_DEFINITION_REPRESENTATION(#14,#12);
#11=PROPERTY_DEFINITION_REPRESENTATION(#15,#13);
#12=REPRESENTATION('',(#16),#629);
#13=REPRESENTATION('',(#17),#629);
#14=PROPERTY_DEFINITION('pmi validation property','',#634);
#15=PROPERTY_DEFINITION('pmi validation property','',#634);
#16=VALUE_REPRESENTATION_ITEM('number of annotations',COUNT_MEASURE(0.));
#17=VALUE_REPRESENTATION_ITEM('number of views',COUNT_MEASURE(0.));
#18=SHAPE_REPRESENTATION_RELATIONSHIP('','',#391,#19);
#19=ADVANCED_BREP_SHAPE_REPRESENTATION('',(#389),#629);
#20=CYLINDRICAL_SURFACE('',#413,0.0015);
#21=CYLINDRICAL_SURFACE('',#416,0.0015);
#22=CYLINDRICAL_SURFACE('',#419,0.0015);
#23=CYLINDRICAL_SURFACE('',#422,0.0015);
#24=CIRCLE('',#398,0.0015);
#25=CIRCLE('',#399,0.0015);
#26=CIRCLE('',#400,0.0015);
#27=CIRCLE('',#401,0.0015);
#28=CIRCLE('',#414,0.0015);
#29=CIRCLE('',#417,0.0015);
#30=CIRCLE('',#420,0.0015);
#31=CIRCLE('',#423,0.0015);
#32=ORIENTED_EDGE('',*,*,#120,.F.);
#33=ORIENTED_EDGE('',*,*,#121,.F.);
#34=ORIENTED_EDGE('',*,*,#122,.T.);
#35=ORIENTED_EDGE('',*,*,#123,.T.);
#36=ORIENTED_EDGE('',*,*,#124,.T.);
#37=ORIENTED_EDGE('',*,*,#125,.F.);
#38=ORIENTED_EDGE('',*,*,#126,.F.);
#39=ORIENTED_EDGE('',*,*,#121,.T.);
#40=ORIENTED_EDGE('',*,*,#127,.T.);
#41=ORIENTED_EDGE('',*,*,#128,.F.);
#42=ORIENTED_EDGE('',*,*,#129,.F.);
#43=ORIENTED_EDGE('',*,*,#125,.T.);
#44=ORIENTED_EDGE('',*,*,#130,.F.);
#45=ORIENTED_EDGE('',*,*,#123,.F.);
#46=ORIENTED_EDGE('',*,*,#131,.T.);
#47=ORIENTED_EDGE('',*,*,#128,.T.);
#48=ORIENTED_EDGE('',*,*,#132,.F.);
#49=ORIENTED_EDGE('',*,*,#133,.F.);
#50=ORIENTED_EDGE('',*,*,#134,.F.);
#51=ORIENTED_EDGE('',*,*,#135,.F.);
#52=ORIENTED_EDGE('',*,*,#136,.F.);
#53=ORIENTED_EDGE('',*,*,#137,.T.);
#54=ORIENTED_EDGE('',*,*,#138,.T.);
#55=ORIENTED_EDGE('',*,*,#139,.F.);
#56=ORIENTED_EDGE('',*,*,#140,.F.);
#57=ORIENTED_EDGE('',*,*,#141,.T.);
#58=ORIENTED_EDGE('',*,*,#142,.T.);
#59=ORIENTED_EDGE('',*,*,#143,.F.);
#60=ORIENTED_EDGE('',*,*,#122,.F.);
#61=ORIENTED_EDGE('',*,*,#126,.T.);
#62=ORIENTED_EDGE('',*,*,#129,.T.);
#63=ORIENTED_EDGE('',*,*,#131,.F.);
#64=ORIENTED_EDGE('',*,*,#120,.T.);
#65=ORIENTED_EDGE('',*,*,#130,.T.);
#66=ORIENTED_EDGE('',*,*,#127,.F.);
#67=ORIENTED_EDGE('',*,*,#124,.F.);
#68=ORIENTED_EDGE('',*,*,#144,.F.);
#69=ORIENTED_EDGE('',*,*,#145,.T.);
#70=ORIENTED_EDGE('',*,*,#146,.T.);
#71=ORIENTED_EDGE('',*,*,#147,.F.);
#72=ORIENTED_EDGE('',*,*,#148,.T.);
#73=ORIENTED_EDGE('',*,*,#142,.F.);
#74=ORIENTED_EDGE('',*,*,#149,.F.);
#75=ORIENTED_EDGE('',*,*,#147,.T.);
#76=ORIENTED_EDGE('',*,*,#143,.T.);
#77=ORIENTED_EDGE('',*,*,#148,.F.);
#78=ORIENTED_EDGE('',*,*,#146,.F.);
#79=ORIENTED_EDGE('',*,*,#150,.T.);
#80=ORIENTED_EDGE('',*,*,#140,.T.);
#81=ORIENTED_EDGE('',*,*,#150,.F.);
#82=ORIENTED_EDGE('',*,*,#145,.F.);
#83=ORIENTED_EDGE('',*,*,#151,.T.);
#84=ORIENTED_EDGE('',*,*,#149,.T.);
#85=ORIENTED_EDGE('',*,*,#141,.F.);
#86=ORIENTED_EDGE('',*,*,#151,.F.);
#87=ORIENTED_EDGE('',*,*,#144,.T.);
#88=ORIENTED_EDGE('',*,*,#152,.F.);
#89=ORIENTED_EDGE('',*,*,#153,.T.);
#90=ORIENTED_EDGE('',*,*,#154,.T.);
#91=ORIENTED_EDGE('',*,*,#155,.F.);
#92=ORIENTED_EDGE('',*,*,#156,.T.);
#93=ORIENTED_EDGE('',*,*,#138,.F.);
#94=ORIENTED_EDGE('',*,*,#157,.F.);
#95=ORIENTED_EDGE('',*,*,#155,.T.);
#96=ORIENTED_EDGE('',*,*,#139,.T.);
#97=ORIENTED_EDGE('',*,*,#156,.F.);
#98=ORIENTED_EDGE('',*,*,#154,.F.);
#99=ORIENTED_EDGE('',*,*,#158,.T.);
#100=ORIENTED_EDGE('',*,*,#136,.T.);
#101=ORIENTED_EDGE('',*,*,#158,.F.);
#102=ORIENTED_EDGE('',*,*,#153,.F.);
#103=ORIENTED_EDGE('',*,*,#159,.T.);
#104=ORIENTED_EDGE('',*,*,#157,.T.);
#105=ORIENTED_EDGE('',*,*,#137,.F.);
#106=ORIENTED_EDGE('',*,*,#159,.F.);
#107=ORIENTED_EDGE('',*,*,#152,.T.);
#108=ORIENTED_EDGE('',*,*,#160,.F.);
#109=ORIENTED_EDGE('',*,*,#135,.T.);
#110=ORIENTED_EDGE('',*,*,#160,.T.);
#111=ORIENTED_EDGE('',*,*,#161,.F.);
#112=ORIENTED_EDGE('',*,*,#134,.T.);
#113=ORIENTED_EDGE('',*,*,#161,.T.);
#114=ORIENTED_EDGE('',*,*,#162,.F.);
#115=ORIENTED_EDGE('',*,*,#133,.T.);
#116=ORIENTED_EDGE('',*,*,#162,.T.);
#117=ORIENTED_EDGE('',*,*,#163,.F.);
#118=ORIENTED_EDGE('',*,*,#132,.T.);
#119=ORIENTED_EDGE('',*,*,#163,.T.);
#120=EDGE_CURVE('',#164,#165,#196,.T.);
#121=EDGE_CURVE('',#166,#164,#197,.T.);
#122=EDGE_CURVE('',#166,#167,#198,.T.);
#123=EDGE_CURVE('',#167,#165,#199,.T.);
#124=EDGE_CURVE('',#164,#168,#200,.T.);
#125=EDGE_CURVE('',#169,#168,#201,.T.);
#126=EDGE_CURVE('',#166,#169,#202,.T.);
#127=EDGE_CURVE('',#168,#170,#203,.T.);
#128=EDGE_CURVE('',#171,#170,#204,.T.);
#129=EDGE_CURVE('',#169,#171,#205,.T.);
#130=EDGE_CURVE('',#165,#170,#206,.T.);
#131=EDGE_CURVE('',#167,#171,#207,.T.);
#132=EDGE_CURVE('',#172,#172,#24,.T.);
#133=EDGE_CURVE('',#173,#173,#25,.T.);
#134=EDGE_CURVE('',#174,#174,#26,.T.);
#135=EDGE_CURVE('',#175,#175,#27,.T.);
#136=EDGE_CURVE('',#176,#177,#208,.T.);
#137=EDGE_CURVE('',#176,#178,#209,.T.);
#138=EDGE_CURVE('',#178,#179,#210,.T.);
#139=EDGE_CURVE('',#177,#179,#211,.T.);
#140=EDGE_CURVE('',#180,#181,#212,.T.);
#141=EDGE_CURVE('',#180,#182,#213,.T.);
#142=EDGE_CURVE('',#182,#183,#214,.T.);
#143=EDGE_CURVE('',#181,#183,#215,.T.);
#144=EDGE_CURVE('',#184,#185,#216,.T.);
#145=EDGE_CURVE('',#184,#186,#217,.T.);
#146=EDGE_CURVE('',#186,#187,#218,.T.);
#147=EDGE_CURVE('',#185,#187,#219,.T.);
#148=EDGE_CURVE('',#187,#183,#220,.T.);
#149=EDGE_CURVE('',#185,#182,#221,.T.);
#150=EDGE_CURVE('',#186,#181,#222,.T.);
#151=EDGE_CURVE('',#184,#180,#223,.T.);
#152=EDGE_CURVE('',#188,#189,#224,.T.);
#153=EDGE_CURVE('',#188,#190,#225,.T.);
#154=EDGE_CURVE('',#190,#191,#226,.T.);
#155=EDGE_CURVE('',#189,#191,#227,.T.);
#156=EDGE_CURVE('',#191,#179,#228,.T.);
#157=EDGE_CURVE('',#189,#178,#229,.T.);
#158=EDGE_CURVE('',#190,#177,#230,.T.);
#159=EDGE_CURVE('',#188,#176,#231,.T.);
#160=EDGE_CURVE('',#192,#192,#28,.T.);
#161=EDGE_CURVE('',#193,#193,#29,.T.);
#162=EDGE_CURVE('',#194,#194,#30,.T.);
#163=EDGE_CURVE('',#195,#195,#31,.T.);
#164=VERTEX_POINT('',#530);
#165=VERTEX_POINT('',#531);
#166=VERTEX_POINT('',#533);
#167=VERTEX_POINT('',#535);
#168=VERTEX_POINT('',#539);
#169=VERTEX_POINT('',#541);
#170=VERTEX_POINT('',#545);
#171=VERTEX_POINT('',#547);
#172=VERTEX_POINT('',#554);
#173=VERTEX_POINT('',#556);
#174=VERTEX_POINT('',#558);
#175=VERTEX_POINT('',#560);
#176=VERTEX_POINT('',#562);
#177=VERTEX_POINT('',#563);
#178=VERTEX_POINT('',#565);
#179=VERTEX_POINT('',#567);
#180=VERTEX_POINT('',#570);
#181=VERTEX_POINT('',#571);
#182=VERTEX_POINT('',#573);
#183=VERTEX_POINT('',#575);
#184=VERTEX_POINT('',#580);
#185=VERTEX_POINT('',#581);
#186=VERTEX_POINT('',#583);
#187=VERTEX_POINT('',#585);
#188=VERTEX_POINT('',#597);
#189=VERTEX_POINT('',#598);
#190=VERTEX_POINT('',#600);
#191=VERTEX_POINT('',#602);
#192=VERTEX_POINT('',#614);
#193=VERTEX_POINT('',#618);
#194=VERTEX_POINT('',#622);
#195=VERTEX_POINT('',#626);
#196=LINE('',#529,#232);
#197=LINE('',#532,#233);
#198=LINE('',#534,#234);
#199=LINE('',#536,#235);
#200=LINE('',#538,#236);
#201=LINE('',#540,#237);
#202=LINE('',#542,#238);
#203=LINE('',#544,#239);
#204=LINE('',#546,#240);
#205=LINE('',#548,#241);
#206=LINE('',#550,#242);
#207=LINE('',#551,#243);
#208=LINE('',#561,#244);
#209=LINE('',#564,#245);
#210=LINE('',#566,#246);
#211=LINE('',#568,#247);
#212=LINE('',#569,#248);
#213=LINE('',#572,#249);
#214=LINE('',#574,#250);
#215=LINE('',#576,#251);
#216=LINE('',#579,#252);
#217=LINE('',#582,#253);
#218=LINE('',#584,#254);
#219=LINE('',#586,#255);
#220=LINE('',#588,#256);
#221=LINE('',#589,#257);
#222=LINE('',#591,#258);
#223=LINE('',#593,#259);
#224=LINE('',#596,#260);
#225=LINE('',#599,#261);
#226=LINE('',#601,#262);
#227=LINE('',#603,#263);
#228=LINE('',#605,#264);
#229=LINE('',#606,#265);
#230=LINE('',#608,#266);
#231=LINE('',#610,#267);
#232=VECTOR('',#429,1.);
#233=VECTOR('',#430,1.);
#234=VECTOR('',#431,1.);
#235=VECTOR('',#432,1.);
#236=VECTOR('',#435,1.);
#237=VECTOR('',#436,1.);
#238=VECTOR('',#437,1.);
#239=VECTOR('',#440,1.);
#240=VECTOR('',#441,1.);
#241=VECTOR('',#442,1.);
#242=VECTOR('',#445,1.);
#243=VECTOR('',#446,1.);
#244=VECTOR('',#457,1.);
#245=VECTOR('',#458,1.);
#246=VECTOR('',#459,1.);
#247=VECTOR('',#460,1.);
#248=VECTOR('',#461,1.);
#249=VECTOR('',#462,1.);
#250=VECTOR('',#463,1.);
#251=VECTOR('',#464,1.);
#252=VECTOR('',#469,1.);
#253=VECTOR('',#470,1.);
#254=VECTOR('',#471,1.);
#255=VECTOR('',#472,1.);
#256=VECTOR('',#475,1.);
#257=VECTOR('',#476,1.);
#258=VECTOR('',#479,1.);
#259=VECTOR('',#482,1.);
#260=VECTOR('',#487,1.);
#261=VECTOR('',#488,1.);
#262=VECTOR('',#489,1.);
#263=VECTOR('',#490,1.);
#264=VECTOR('',#493,1.);
#265=VECTOR('',#494,1.);
#266=VECTOR('',#497,1.);
#267=VECTOR('',#500,1.);
#268=EDGE_LOOP('',(#32,#33,#34,#35));
#269=EDGE_LOOP('',(#36,#37,#38,#39));
#270=EDGE_LOOP('',(#40,#41,#42,#43));
#271=EDGE_LOOP('',(#44,#45,#46,#47));
#272=EDGE_LOOP('',(#48));
#273=EDGE_LOOP('',(#49));
#274=EDGE_LOOP('',(#50));
#275=EDGE_LOOP('',(#51));
#276=EDGE_LOOP('',(#52,#53,#54,#55));
#277=EDGE_LOOP('',(#56,#57,#58,#59));
#278=EDGE_LOOP('',(#60,#61,#62,#63));
#279=EDGE_LOOP('',(#64,#65,#66,#67));
#280=EDGE_LOOP('',(#68,#69,#70,#71));
#281=EDGE_LOOP('',(#72,#73,#74,#75));
#282=EDGE_LOOP('',(#76,#77,#78,#79));
#283=EDGE_LOOP('',(#80,#81,#82,#83));
#284=EDGE_LOOP('',(#84,#85,#86,#87));
#285=EDGE_LOOP('',(#88,#89,#90,#91));
#286=EDGE_LOOP('',(#92,#93,#94,#95));
#287=EDGE_LOOP('',(#96,#97,#98,#99));
#288=EDGE_LOOP('',(#100,#101,#102,#103));
#289=EDGE_LOOP('',(#104,#105,#106,#107));
#290=EDGE_LOOP('',(#108));
#291=EDGE_LOOP('',(#109));
#292=EDGE_LOOP('',(#110));
#293=EDGE_LOOP('',(#111));
#294=EDGE_LOOP('',(#112));
#295=EDGE_LOOP('',(#113));
#296=EDGE_LOOP('',(#114));
#297=EDGE_LOOP('',(#115));
#298=EDGE_LOOP('',(#116));
#299=EDGE_LOOP('',(#117));
#300=EDGE_LOOP('',(#118));
#301=EDGE_LOOP('',(#119));
#302=FACE_BOUND('',#268,.T.);
#303=FACE_BOUND('',#269,.T.);
#304=FACE_BOUND('',#270,.T.);
#305=FACE_BOUND('',#271,.T.);
#306=FACE_BOUND('',#272,.T.);
#307=FACE_BOUND('',#273,.T.);
#308=FACE_BOUND('',#274,.T.);
#309=FACE_BOUND('',#275,.T.);
#310=FACE_BOUND('',#276,.T.);
#311=FACE_BOUND('',#277,.T.);
#312=FACE_BOUND('',#278,.T.);
#313=FACE_BOUND('',#279,.T.);
#314=FACE_BOUND('',#280,.T.);
#315=FACE_BOUND('',#281,.T.);
#316=FACE_BOUND('',#282,.T.);
#317=FACE_BOUND('',#283,.T.);
#318=FACE_BOUND('',#284,.T.);
#319=FACE_BOUND('',#285,.T.);
#320=FACE_BOUND('',#286,.T.);
#321=FACE_BOUND('',#287,.T.);
#322=FACE_BOUND('',#288,.T.);
#323=FACE_BOUND('',#289,.T.);
#324=FACE_BOUND('',#290,.T.);
#325=FACE_BOUND('',#291,.T.);
#326=FACE_BOUND('',#292,.T.);
#327=FACE_BOUND('',#293,.T.);
#328=FACE_BOUND('',#294,.T.);
#329=FACE_BOUND('',#295,.T.);
#330=FACE_BOUND('',#296,.T.);
#331=FACE_BOUND('',#297,.T.);
#332=FACE_BOUND('',#298,.T.);
#333=FACE_BOUND('',#299,.T.);
#334=FACE_BOUND('',#300,.T.);
#335=FACE_BOUND('',#301,.T.);
#336=PLANE('',#393);
#337=PLANE('',#394);
#338=PLANE('',#395);
#339=PLANE('',#396);
#340=PLANE('',#397);
#341=PLANE('',#402);
#342=PLANE('',#403);
#343=PLANE('',#404);
#344=PLANE('',#405);
#345=PLANE('',#406);
#346=PLANE('',#407);
#347=PLANE('',#408);
#348=PLANE('',#409);
#349=PLANE('',#410);
#350=PLANE('',#411);
#351=PLANE('',#412);
#352=PLANE('',#415);
#353=PLANE('',#418);
#354=PLANE('',#421);
#355=PLANE('',#424);
#356=ADVANCED_FACE('',(#302),#336,.T.);
#357=ADVANCED_FACE('',(#303),#337,.F.);
#358=ADVANCED_FACE('',(#304),#338,.F.);
#359=ADVANCED_FACE('',(#305),#339,.T.);
#360=ADVANCED_FACE('',(#306,#307,#308,#309,#310,#311,#312),#340,.T.);
#361=ADVANCED_FACE('',(#313),#341,.F.);
#362=ADVANCED_FACE('',(#314),#342,.T.);
#363=ADVANCED_FACE('',(#315),#343,.T.);
#364=ADVANCED_FACE('',(#316),#344,.F.);
#365=ADVANCED_FACE('',(#317),#345,.F.);
#366=ADVANCED_FACE('',(#318),#346,.T.);
#367=ADVANCED_FACE('',(#319),#347,.T.);
#368=ADVANCED_FACE('',(#320),#348,.T.);
#369=ADVANCED_FACE('',(#321),#349,.F.);
#370=ADVANCED_FACE('',(#322),#350,.F.);
#371=ADVANCED_FACE('',(#323),#351,.T.);
#372=ADVANCED_FACE('',(#324,#325),#20,.T.);
#373=ADVANCED_FACE('',(#326),#352,.T.);
#374=ADVANCED_FACE('',(#327,#328),#21,.T.);
#375=ADVANCED_FACE('',(#329),#353,.T.);
#376=ADVANCED_FACE('',(#330,#331),#22,.T.);
#377=ADVANCED_FACE('',(#332),#354,.T.);
#378=ADVANCED_FACE('',(#333,#334),#23,.T.);
#379=ADVANCED_FACE('',(#335),#355,.T.);
#380=CLOSED_SHELL('',(#356,#357,#358,#359,#360,#361,#362,#363,#364,#365,
#366,#367,#368,#369,#370,#371,#372,#373,#374,#375,#376,#377,#378,#379));
#381=STYLED_ITEM('',(#382),#389);
#382=PRESENTATION_STYLE_ASSIGNMENT((#383));
#383=SURFACE_STYLE_USAGE(.BOTH.,#384);
#384=SURFACE_SIDE_STYLE('',(#385));
#385=SURFACE_STYLE_FILL_AREA(#386);
#386=FILL_AREA_STYLE('',(#387));
#387=FILL_AREA_STYLE_COLOUR('',#388);
#388=COLOUR_RGB('',0.615686274509804,0.811764705882353,0.929411764705882);
#389=MANIFOLD_SOLID_BREP('Part 1',#380);
#390=SHAPE_DEFINITION_REPRESENTATION(#634,#391);
#391=SHAPE_REPRESENTATION('Part 1',(#392),#629);
#392=AXIS2_PLACEMENT_3D('',#527,#425,#426);
#393=AXIS2_PLACEMENT_3D('',#528,#427,#428);
#394=AXIS2_PLACEMENT_3D('',#537,#433,#434);
#395=AXIS2_PLACEMENT_3D('',#543,#438,#439);
#396=AXIS2_PLACEMENT_3D('',#549,#443,#444);
#397=AXIS2_PLACEMENT_3D('',#552,#447,#448);
#398=AXIS2_PLACEMENT_3D('',#553,#449,#450);
#399=AXIS2_PLACEMENT_3D('',#555,#451,#452);
#400=AXIS2_PLACEMENT_3D('',#557,#453,#454);
#401=AXIS2_PLACEMENT_3D('',#559,#455,#456);
#402=AXIS2_PLACEMENT_3D('',#577,#465,#466);
#403=AXIS2_PLACEMENT_3D('',#578,#467,#468);
#404=AXIS2_PLACEMENT_3D('',#587,#473,#474);
#405=AXIS2_PLACEMENT_3D('',#590,#477,#478);
#406=AXIS2_PLACEMENT_3D('',#592,#480,#481);
#407=AXIS2_PLACEMENT_3D('',#594,#483,#484);
#408=AXIS2_PLACEMENT_3D('',#595,#485,#486);
#409=AXIS2_PLACEMENT_3D('',#604,#491,#492);
#410=AXIS2_PLACEMENT_3D('',#607,#495,#496);
#411=AXIS2_PLACEMENT_3D('',#609,#498,#499);
#412=AXIS2_PLACEMENT_3D('',#611,#501,#502);
#413=AXIS2_PLACEMENT_3D('',#612,#503,#504);
#414=AXIS2_PLACEMENT_3D('',#613,#505,#506);
#415=AXIS2_PLACEMENT_3D('',#615,#507,#508);
#416=AXIS2_PLACEMENT_3D('',#616,#509,#510);
#417=AXIS2_PLACEMENT_3D('',#617,#511,#512);
#418=AXIS2_PLACEMENT_3D('',#619,#513,#514);
#419=AXIS2_PLACEMENT_3D('',#620,#515,#516);
#420=AXIS2_PLACEMENT_3D('',#621,#517,#518);
#421=AXIS2_PLACEMENT_3D('',#623,#519,#520);
#422=AXIS2_PLACEMENT_3D('',#624,#521,#522);
#423=AXIS2_PLACEMENT_3D('',#625,#523,#524);
#424=AXIS2_PLACEMENT_3D('',#627,#525,#526);
#425=DIRECTION('',(0.,0.,1.));
#426=DIRECTION('',(1.,0.,0.));
#427=DIRECTION('',(1.38777878078145E-16,-1.,0.));
#428=DIRECTION('',(1.,1.38777878078145E-16,0.));
#429=DIRECTION('',(-1.,-1.38777878078145E-16,0.));
#430=DIRECTION('',(0.,0.,-1.));
#431=DIRECTION('',(-1.,-1.38777878078145E-16,0.));
#432=DIRECTION('',(0.,0.,-1.));
#433=DIRECTION('',(-1.,0.,0.));
#434=DIRECTION('',(0.,0.,1.));
#435=DIRECTION('',(0.,1.,0.));
#436=DIRECTION('',(0.,0.,-1.));
#437=DIRECTION('',(0.,1.,0.));
#438=DIRECTION('',(1.38777878078145E-16,-1.,0.));
#439=DIRECTION('',(1.,1.38777878078145E-16,0.));
#440=DIRECTION('',(-1.,-1.38777878078145E-16,0.));
#441=DIRECTION('',(0.,0.,-1.));
#442=DIRECTION('',(-1.,-1.38777878078145E-16,0.));
#443=DIRECTION('',(-1.,0.,0.));
#444=DIRECTION('',(0.,0.,1.));
#445=DIRECTION('',(0.,1.,0.));
#446=DIRECTION('',(0.,1.,0.));
#447=DIRECTION('',(0.,0.,1.));
#448=DIRECTION('',(1.,0.,0.));
#449=DIRECTION('',(0.,0.,1.));
#450=DIRECTION('',(1.,0.,0.));
#451=DIRECTION('',(0.,0.,1.));
#452=DIRECTION('',(1.,0.,0.));
#453=DIRECTION('',(0.,0.,1.));
#454=DIRECTION('',(1.,0.,0.));
#455=DIRECTION('',(0.,0.,1.));
#456=DIRECTION('',(1.,0.,0.));
#457=DIRECTION('',(0.,1.,0.));
#458=DIRECTION('',(-1.,0.,0.));
#459=DIRECTION('',(-6.93889390390723E-17,1.,0.));
#460=DIRECTION('',(-1.,0.,0.));
#461=DIRECTION('',(-6.93889390390723E-17,1.,0.));
#462=DIRECTION('',(-1.,0.,0.));
#463=DIRECTION('',(-2.77555756156289E-16,1.,0.));
#464=DIRECTION('',(-1.,0.,0.));
#465=DIRECTION('',(0.,0.,1.));
#466=DIRECTION('',(1.,0.,0.));
#467=DIRECTION('',(0.,0.,1.));
#468=DIRECTION('',(1.,0.,0.));
#469=DIRECTION('',(-1.,0.,0.));
#470=DIRECTION('',(-6.93889390390723E-17,1.,0.));
#471=DIRECTION('',(-1.,0.,0.));
#472=DIRECTION('',(-2.77555756156289E-16,1.,0.));
#473=DIRECTION('',(-1.,-2.77555756156289E-16,0.));
#474=DIRECTION('',(2.77555756156289E-16,-1.,0.));
#475=DIRECTION('',(0.,0.,-1.));
#476=DIRECTION('',(0.,0.,-1.));
#477=DIRECTION('',(0.,-1.,0.));
#478=DIRECTION('',(0.,0.,-1.));
#479=DIRECTION('',(0.,0.,-1.));
#480=DIRECTION('',(-1.,-6.93889390390723E-17,0.));
#481=DIRECTION('',(6.93889390390723E-17,-1.,0.));
#482=DIRECTION('',(0.,0.,-1.));
#483=DIRECTION('',(0.,-1.,0.));
#484=DIRECTION('',(0.,0.,-1.));
#485=DIRECTION('',(0.,0.,1.));
#486=DIRECTION('',(1.,0.,0.));
#487=DIRECTION('',(-1.,0.,0.));
#488=DIRECTION('',(0.,1.,0.));
#489=DIRECTION('',(-1.,0.,0.));
#490=DIRECTION('',(-6.93889390390723E-17,1.,0.));
#491=DIRECTION('',(-1.,-6.93889390390723E-17,0.));
#492=DIRECTION('',(6.93889390390723E-17,-1.,0.));
#493=DIRECTION('',(0.,0.,-1.));
#494=DIRECTION('',(0.,0.,-1.));
#495=DIRECTION('',(0.,-1.,0.));
#496=DIRECTION('',(0.,0.,-1.));
#497=DIRECTION('',(0.,0.,-1.));
#498=DIRECTION('',(-1.,0.,0.));
#499=DIRECTION('',(0.,0.,1.));
#500=DIRECTION('',(0.,0.,-1.));
#501=DIRECTION('',(0.,-1.,0.));
#502=DIRECTION('',(0.,0.,-1.));
#503=DIRECTION('',(0.,0.,-1.));
#504=DIRECTION('',(-1.,0.,0.));
#505=DIRECTION('',(0.,0.,1.));
#506=DIRECTION('',(1.,0.,0.));
#507=DIRECTION('',(0.,0.,1.));
#508=DIRECTION('',(1.,0.,0.));
#509=DIRECTION('',(0.,0.,-1.));
#510=DIRECTION('',(-1.,0.,0.));
#511=DIRECTION('',(0.,0.,1.));
#512=DIRECTION('',(1.,0.,0.));
#513=DIRECTION('',(0.,0.,1.));
#514=DIRECTION('',(1.,0.,0.));
#515=DIRECTION('',(0.,0.,-1.));
#516=DIRECTION('',(-1.,0.,0.));
#517=DIRECTION('',(0.,0.,1.));
#518=DIRECTION('',(1.,0.,0.));
#519=DIRECTION('',(0.,0.,1.));
#520=DIRECTION('',(1.,0.,0.));
#521=DIRECTION('',(0.,0.,-1.));
#522=DIRECTION('',(-1.,0.,0.));
#523=DIRECTION('',(0.,0.,1.));
#524=DIRECTION('',(1.,0.,0.));
#525=DIRECTION('',(0.,0.,1.));
#526=DIRECTION('',(1.,0.,0.));
#527=CARTESIAN_POINT('',(0.,0.,0.));
#528=CARTESIAN_POINT('',(0.,-0.035,0.005));
#529=CARTESIAN_POINT('',(0.,-0.035,0.));
#530=CARTESIAN_POINT('',(0.05,-0.035,0.));
#531=CARTESIAN_POINT('',(-0.05,-0.035,0.));
#532=CARTESIAN_POINT('',(0.05,-0.035,0.005));
#533=CARTESIAN_POINT('',(0.05,-0.035,0.005));
#534=CARTESIAN_POINT('',(0.,-0.035,0.005));
#535=CARTESIAN_POINT('',(-0.05,-0.035,0.005));
#536=CARTESIAN_POINT('',(-0.05,-0.035,0.005));
#537=CARTESIAN_POINT('',(0.05,6.93889390390723E-18,0.005));
#538=CARTESIAN_POINT('',(0.05,6.93889390390723E-18,0.));
#539=CARTESIAN_POINT('',(0.05,0.035,0.));
#540=CARTESIAN_POINT('',(0.05,0.035,0.005));
#541=CARTESIAN_POINT('',(0.05,0.035,0.005));
#542=CARTESIAN_POINT('',(0.05,6.93889390390723E-18,0.005));
#543=CARTESIAN_POINT('',(0.,0.035,0.005));
#544=CARTESIAN_POINT('',(0.,0.035,0.));
#545=CARTESIAN_POINT('',(-0.05,0.035,0.));
#546=CARTESIAN_POINT('',(-0.05,0.035,0.005));
#547=CARTESIAN_POINT('',(-0.05,0.035,0.005));
#548=CARTESIAN_POINT('',(0.,0.035,0.005));
#549=CARTESIAN_POINT('',(-0.05,-6.93889390390723E-18,0.005));
#550=CARTESIAN_POINT('',(-0.05,-6.93889390390723E-18,0.));
#551=CARTESIAN_POINT('',(-0.05,-6.93889390390723E-18,0.005));
#552=CARTESIAN_POINT('',(0.,0.,0.005));
#553=CARTESIAN_POINT('',(0.047,0.032,0.005));
#554=CARTESIAN_POINT('',(0.0485,0.032,0.005));
#555=CARTESIAN_POINT('',(0.047,-0.0320000015199184,0.005));
#556=CARTESIAN_POINT('',(0.0485,-0.0320000015199184,0.005));
#557=CARTESIAN_POINT('',(-0.047,-0.032,0.005));
#558=CARTESIAN_POINT('',(-0.0455,-0.032,0.005));
#559=CARTESIAN_POINT('',(-0.047,0.032,0.005));
#560=CARTESIAN_POINT('',(-0.0455,0.032,0.005));
#561=CARTESIAN_POINT('',(0.04,3.46944695195361E-18,0.005));
#562=CARTESIAN_POINT('',(0.04,-0.025,0.005));
#563=CARTESIAN_POINT('',(0.04,0.025,0.005));
#564=CARTESIAN_POINT('',(0.025,-0.025,0.005));
#565=CARTESIAN_POINT('',(0.01,-0.025,0.005));
#566=CARTESIAN_POINT('',(0.01,0.,0.005));
#567=CARTESIAN_POINT('',(0.01,0.025,0.005));
#568=CARTESIAN_POINT('',(0.025,0.025,0.005));
#569=CARTESIAN_POINT('',(-0.01,-3.12250225675825E-17,0.005));
#570=CARTESIAN_POINT('',(-0.01,-0.025,0.005));
#571=CARTESIAN_POINT('',(-0.01,0.025,0.005));
#572=CARTESIAN_POINT('',(-0.025,-0.025,0.005));
#573=CARTESIAN_POINT('',(-0.04,-0.025,0.005));
#574=CARTESIAN_POINT('',(-0.04,-3.81639164714897E-17,0.005));
#575=CARTESIAN_POINT('',(-0.04,0.025,0.005));
#576=CARTESIAN_POINT('',(-0.025,0.025,0.005));
#577=CARTESIAN_POINT('',(0.,0.,0.));
#578=CARTESIAN_POINT('',(0.,0.,0.045));
#579=CARTESIAN_POINT('',(-0.025,-0.025,0.045));
#580=CARTESIAN_POINT('',(-0.01,-0.025,0.045));
#581=CARTESIAN_POINT('',(-0.04,-0.025,0.045));
#582=CARTESIAN_POINT('',(-0.01,-3.12250225675825E-17,0.045));
#583=CARTESIAN_POINT('',(-0.01,0.025,0.045));
#584=CARTESIAN_POINT('',(-0.025,0.025,0.045));
#585=CARTESIAN_POINT('',(-0.04,0.025,0.045));
#586=CARTESIAN_POINT('',(-0.04,-3.81639164714897E-17,0.045));
#587=CARTESIAN_POINT('',(-0.04,-3.81639164714897E-17,0.045));
#588=CARTESIAN_POINT('',(-0.04,0.025,0.045));
#589=CARTESIAN_POINT('',(-0.04,-0.025,0.045));
#590=CARTESIAN_POINT('',(-0.025,0.025,0.045));
#591=CARTESIAN_POINT('',(-0.01,0.025,0.045));
#592=CARTESIAN_POINT('',(-0.01,-3.12250225675825E-17,0.045));
#593=CARTESIAN_POINT('',(-0.01,-0.025,0.045));
#594=CARTESIAN_POINT('',(-0.025,-0.025,0.045));
#595=CARTESIAN_POINT('',(0.,0.,0.045));
#596=CARTESIAN_POINT('',(0.025,-0.025,0.045));
#597=CARTESIAN_POINT('',(0.04,-0.025,0.045));
#598=CARTESIAN_POINT('',(0.01,-0.025,0.045));
#599=CARTESIAN_POINT('',(0.04,3.46944695195361E-18,0.045));
#600=CARTESIAN_POINT('',(0.04,0.025,0.045));
#601=CARTESIAN_POINT('',(0.025,0.025,0.045));
#602=CARTESIAN_POINT('',(0.01,0.025,0.045));
#603=CARTESIAN_POINT('',(0.01,0.,0.045));
#604=CARTESIAN_POINT('',(0.01,0.,0.045));
#605=CARTESIAN_POINT('',(0.01,0.025,0.045));
#606=CARTESIAN_POINT('',(0.01,-0.025,0.045));
#607=CARTESIAN_POINT('',(0.025,0.025,0.045));
#608=CARTESIAN_POINT('',(0.04,0.025,0.045));
#609=CARTESIAN_POINT('',(0.04,3.46944695195361E-18,0.045));
#610=CARTESIAN_POINT('',(0.04,-0.025,0.045));
#611=CARTESIAN_POINT('',(0.025,-0.025,0.045));
#612=CARTESIAN_POINT('',(-0.047,0.032,0.01));
#613=CARTESIAN_POINT('',(-0.047,0.032,0.01));
#614=CARTESIAN_POINT('',(-0.0455,0.032,0.01));
#615=CARTESIAN_POINT('',(0.,0.,0.01));
#616=CARTESIAN_POINT('',(-0.047,-0.032,0.01));
#617=CARTESIAN_POINT('',(-0.047,-0.032,0.01));
#618=CARTESIAN_POINT('',(-0.0455,-0.032,0.01));
#619=CARTESIAN_POINT('',(0.,0.,0.01));
#620=CARTESIAN_POINT('',(0.047,-0.0320000015199184,0.01));
#621=CARTESIAN_POINT('',(0.047,-0.0320000015199184,0.01));
#622=CARTESIAN_POINT('',(0.0485,-0.0320000015199184,0.01));
#623=CARTESIAN_POINT('',(0.,0.,0.01));
#624=CARTESIAN_POINT('',(0.047,0.032,0.01));
#625=CARTESIAN_POINT('',(0.047,0.032,0.01));
#626=CARTESIAN_POINT('',(0.0485,0.032,0.01));
#627=CARTESIAN_POINT('',(0.,0.,0.01));
#628=MECHANICAL_DESIGN_GEOMETRIC_PRESENTATION_REPRESENTATION('',(#381),
#629);
#629=(
GEOMETRIC_REPRESENTATION_CONTEXT(3)
GLOBAL_UNCERTAINTY_ASSIGNED_CONTEXT((#630))
GLOBAL_UNIT_ASSIGNED_CONTEXT((#633,#632,#631))
REPRESENTATION_CONTEXT('Part 1','TOP_LEVEL_ASSEMBLY_PART')
);
#630=UNCERTAINTY_MEASURE_WITH_UNIT(LENGTH_MEASURE(5.E-6),#633,
'DISTANCE_ACCURACY_VALUE','Maximum Tolerance applied to model');
#631=(
NAMED_UNIT(*)
SI_UNIT($,.STERADIAN.)
SOLID_ANGLE_UNIT()
);
#632=(
NAMED_UNIT(*)
PLANE_ANGLE_UNIT()
SI_UNIT($,.RADIAN.)
);
#633=(
LENGTH_UNIT()
NAMED_UNIT(*)
SI_UNIT($,.METRE.)
);
#634=PRODUCT_DEFINITION_SHAPE('','',#635);
#635=PRODUCT_DEFINITION('','',#637,#636);
#636=PRODUCT_DEFINITION_CONTEXT('',#643,'design');
#637=PRODUCT_DEFINITION_FORMATION_WITH_SPECIFIED_SOURCE('','',#639,
 .NOT_KNOWN.);
#638=PRODUCT_RELATED_PRODUCT_CATEGORY('','',(#639));
#639=PRODUCT('Part 1','Part 1','Part 1',(#641));
#640=PRODUCT_CATEGORY('','');
#641=PRODUCT_CONTEXT('',#643,'mechanical');
#642=APPLICATION_PROTOCOL_DEFINITION('international standard',
'automotive_design',2010,#643);
#643=APPLICATION_CONTEXT(
'core data for automotive mechanical design processes');
ENDSEC;
END-ISO-10303-21;
